» » »

Nemisis, Dirty Needles Tabs (ver.1)

Artists:  A B C D E F G H I J K L M N O P Q R S T U V W X Y Z # 

Dirty Needles Tabs (ver.1)

Nemisis Tabs
Rating:
0/5 (0 votes)
Dirty Needles lessons Tabs too difficult? Try these video lessons and learn fast
                If you're gonna shoot up,     please don't use somebody else's needles, cause you 
|--------------------------------------------------------------------------------|
|--------------------------------------------------------------------------------|
|--------------------------------------------------7-----------------------------|
|---------------------7-------5--------------------7-----------7-----------------|
|---------------------7-------5--------------------5-----------7-----------------|
|---------------------5-------3--------------------------------5-----------------|

   don't know where that somebody has been, oh no
|--------------------------------------------------------------------------------|
|--------------------------------------------------------------------------------|
|--9-------------------------------------------9---------------------------------|
|--9----------------------------------7--------9---------------------------------|
|--7----------------------------------7--------7---------------------------------|
|-------------------------------------5------------------------------------------|

If you're gonna use junk,     please don't be a dirty cotton kid, because you 
|--------------------------------------------------------------------------------|
|--------------------------------------------------------------------------------|
|-----------------------------------------------7--------------------------------|
|---------------------7-------5-----------------7------------7-------------------|
|---------------------7-------5-----------------5------------7-------------------|
|---------------------5-------3------------------------------5-------------------|

   might end up with AIDS or something else, oh no
|--------------------------------------------------------------------------------|
|--------------------------------------------------------------------------------|
|--9--------------------------------------------9--------------------------------|
|--9-----------------------------------7--------9--------------------------------|
|--7-----------------------------------7--------7--------------------------------|
|--------------------------------------5-----------------------------------------|

If you're gonna shoot up,    don't use dirty needles.
|--------------------------------------------------------------------------------|
|--------------------------------------------------------------------------------|
|---------------------9------7---------------------------------------------------|
|---------------------9------7---------------7-----------------------------------|
|---------------------7------5---------------7-----------------------------------|
|--------------------------------------------5-----------------------------------|

   Baby, if you're gonna shoot speed,   don't use dirty needles.
|--------------------------------------------------------------------------------|
|--------------------------------------------------------------------------------|
|------------------------------9--------7----------------------------------------|
|--7---------------------------9--------7---------------7------------------------|
|--7---------------------------7--------5---------------7------------------------|
|--5----------------------------------------------------5------------------------|

   Baby, if you're gonna shoot smack,   don't use dirty needles.
|--------------------------------------------------------------------------------|
|--------------------------------------------------------------------------------|
|------------------------------9--------7----------------------------------------|
|--7---------------------------9--------7---------------7------------------------|
|--7---------------------------7--------5---------------7------------------------|
|--5----------------------------------------------------5------------------------|

   Baby, if you're gonna shoot up,      don't use dirty needles.
|--------------------------------------------------------------------------------|
|--------------------------------------------------------------------------------|
|------------------------------9--------7----------------------------------------|
|--7---------------------------9--------7---------------7------------------------|
|--7---------------------------7--------5---------------7------------------------|
|--5----------------------------------------------------5------------------------|
            
Submit corrections

comments powered by Disqus
↑ Back to top | Nemisis Tabs for Dirty Needles. Lyrics for acoustic guitar and electric guitar. Tablatures and chords are parodies/interpretations of the original songs. You may use it for private study, scholarship, research or language learning purposes only