» » »

Dingbats Tabs (ver.1)

Artists:  A B C D E F G H I J K L M N O P Q R S T U V W X Y Z # 

Dingbats Tabs (ver.1)

Nemisis
Rating:
0/5 (0 votes)

Hard to play? Try these video lessons and learn fast.
                e|------------------------------------------------------------------|
b|------------------------------------------------------------------|
g|------8-8-----7-7-------------------------------------------------|
d|--5-5-8-8-8-8-7-7-------------------------------------------------|
a|--5-5-6-6-8-8-5-5-------------------------------------------------|
e|--3-3-----6-6-----------------------------------------------------|

  repeats through whole song.

then guitar 1 plays..
                     repeat   then  
e|--------------------------|---------------------------------------|
b|--------------------------|---------------------------------------|
g|--------------------------|---------------------------------------|
d|--------------------------|---------------------------------------|
a|------6-5-3-5-3-1-3-1-0---|-----6-5-3-5-6-8-6-5-6-5-3-1-0---------|
e|--3-3-------------------3-|-3-3---------------------------3-------|


e|------------------------------------------------------------------|
b|------------------------------------------------------------------|
g|------8-8-----7-7-------------------------------------------------|
d|--5-5-8-8-8-8-7-7-------------------------------------------------|
a|--5-5-6-6-8-8-5-5-------------------------------------------------|
e|--3-3-----6-6-----------------------------------------------------|

  repeats through whole song.

then guitar 1 plays..
                     repeat   then  
e|--------------------------|---------------------------------------|
b|--------------------------|---------------------------------------|
g|--------------------------|---------------------------------------|
d|--------------------------|---------------------------------------|
a|------6-5-3-5-3-1-3-1-0---|-----6-5-3-5-6-8-6-5-6-5-3-1-0---------|
e|--3-3-------------------3-|-3-3---------------------------3-------|
            
Hard to play? Try these video lessons and learn fast. | Correct




comments powered by Disqus
↑ Back to top | Tablatures and chords are parodies/interpretations of the original songs. You may use it for private study, scholarship, research or language learning purposes only