» » »

Nemisis, Cool Kids Tabs (ver.1)

Artists:  A B C D E F G H I J K L M N O P Q R S T U V W X Y Z # 

Cool Kids Tabs (ver.1)

Nemisis Tabs
Rating:
0/5 (0 votes)
Cool Kids lessons Tabs too difficult? Try these video lessons and learn fast
                pm=palm mute

G Gpm
There's a real cool club...

C Cpm                             G Gpm
And talk bad...about the other kids
              D Dpm               C Cpm               G Gpm   
Yeah its a real cool club and you're not part of it.

then blast into D.  The first solo comes in w/ same progression.

e|---------------10-8-------------------------|
B|-8---10---12----------10-h12-p10-h12-p10-8--| x 6

Song continues then for the 2nd solo, repeat above 6x then

e :--------------10---------------------|
B :8---10---12------8---8-10---12---15--|

e :--------------10---------------------|
B :8---10---12------8---8-10---12---15--|


e :10---10---10---8-h10-------------------------|
B :-----------------------10-h12-p10-h12-p10-8--|

                                         
e :--------------10---------------------|
B :8---10---12------8---8-10---12---15--|


e :10---10-p8------10---8---x-x-x-----8|
B :-----------10------------------8----|
            
Submit corrections

comments powered by Disqus
↑ Back to top | Nemisis Tabs for Cool Kids. Lyrics for acoustic guitar and electric guitar. Tablatures and chords are parodies/interpretations of the original songs. You may use it for private study, scholarship, research or language learning purposes only