» » »

Celena Tabs (ver.1)

Artists:  A B C D E F G H I J K L M N O P Q R S T U V W X Y Z # 

Celena Tabs (ver.1)

Nemisis
Rating:
0/5 (0 votes)

Tabs too difficult? Try these video lessons and learn fast.
                
|----------------------------|------------------|---------------------|
|----------------------------|------------------|---------------------|
|----------------5-------7---|-----5--7--5/7\5--|--9--7--5-----5------|
|-------5------5---5---7---7-|--5--5--7--5/7\5--|--9--7--5--5--5------| 
|-----5---5--3-------5-------|--5--3--5--3/5\3--|--7--5--3--5--3------|
|---3------------------------|--3---------------|-----------3---------|

Just listen to the song, and you'll find every tabs in there.

|----------------------------|------------------|---------------------|
|----------------------------|------------------|---------------------|
|----------------5-------7---|-----5--7--5/7\5--|--9--7--5-----5------|
|-------5------5---5---7---7-|--5--5--7--5/7\5--|--9--7--5--5--5------| 
|-----5---5--3-------5-------|--5--3--5--3/5\3--|--7--5--3--5--3------|
|---3------------------------|--3---------------|-----------3---------|

Just listen to the song, and you'll find every tabs in there.
            
Tabs too difficult? Try these video lessons and learn fast.


comments powered by Disqus
↑ Back to top | Tablatures and chords are parodies/interpretations of the original songs. You may use it for private study, scholarship, research or language learning purposes only