» » »

California Sucks Tabs (ver.1)

Artists:  A B C D E F G H I J K L M N O P Q R S T U V W X Y Z # 

California Sucks Tabs (ver.1)

Nemisis
Rating:
0/5 (0 votes)

Hard to play? Try these video lessons and learn fast.
                e|-------------------------------------------------------------------------|
B|----------- x11 ------------------this is from there Re-release CD-------|
G|-------------------------------------------------------------------------|
D|---6-888-X-------11-10--999999-------------------------------------------|
A|---6-888-X-------11-10--999999-------------------------------------------|
E|---4-666-X--------9--8--777777-------------------------------------------|
               do it 3 times

e|-------------------------------------------------------------------------|
B|----------- x11 ------------------this is from there Re-release CD-------|
G|-------------------------------------------------------------------------|
D|---6-888-X-------11-10--999999-------------------------------------------|
A|---6-888-X-------11-10--999999-------------------------------------------|
E|---4-666-X--------9--8--777777-------------------------------------------|
               do it 3 times
            
Hard to play? Try these video lessons and learn fast. | Correct




comments powered by Disqus
↑ Back to top | Tablatures and chords are parodies/interpretations of the original songs. You may use it for private study, scholarship, research or language learning purposes only