» » »

Nemisis, Bleeding Tabs (ver.1)

Artists:  A B C D E F G H I J K L M N O P Q R S T U V W X Y Z # 

Bleeding Tabs (ver.1)

Nemisis Tabs
Rating:
0/5 (0 votes)
Bleeding lessons Tabs too difficult? Try these video lessons and learn fast
                -----------------------------------
-----------------------------------
-----------------------------------
----3-4-6-------------3-4-6--------
---2-----2-----------2-----2-------    x3
--2-------2-5-7-4-5-2-------2------


-----------------------------------
-----------------------------------
-----------------------------------
----7-8-9-------------7-8-9--------
---6-----6-----------6-----6-------
--6-------6-5-7-4-5-6-------6------
-----------------------------------
-----------------------------------
-----------------------------------
----3-4-6-------------3-4-6--------
---2-----2-----------2-----2-------    x3
--2-------2-5-7-4-5-2-------2------


-----------------------------------
-----------------------------------
-----------------------------------
----7-8-9-------------7-8-9--------
---6-----6-----------6-----6-------
--6-------6-5-7-4-5-6-------6------
            
Submit corrections

comments powered by Disqus
↑ Back to top | Nemisis Tabs for Bleeding. Lyrics for acoustic guitar and electric guitar. Tablatures and chords are parodies/interpretations of the original songs. You may use it for private study, scholarship, research or language learning purposes only