>
 >
Anybody Listening

Anybody Listening Guitar Tabs

Nemisis - Anybody Listening chords, tabs, tablatures, lyrics

Guitar lessons | Add/correct | Request | Top 50 tabs Artists:  A B C D E F G H I J K L M N O P Q R S T U V W X Y Z 0-9

Anybody Listening Guitar Tabs – Nemisis

CD, Sheet music, Poster

Do you like Anybody Listening? Share with your friends now
Tabs
clean:
e-----3----------------3----------------3-------------------3------------------|
B--------3----------------3----------------3-------------3---------------------|
G--0--------0-------0--------0-------0--------0-------0-----------0------------|
D----------------1-------------------------------------------------------------|
A---------------------------------3----------------1-----------0-----0---------|
E------------------------------------------------------------------------------|
   ^
e--------3----------------3----------------3-------------------3-----------3---|
B-----------3----------------3----------------3-------------3-----------3------|
G--------------0-------0--------0-------0--------0-------0-----------0---------|
D-----0-------------1---------------------------------1-----------3------------|
A------------------------------------3-----------------------------------------|
E--3---------------------------------------------------------------------------|

e--------3----------------3----------------3-------------------3-----------3---|
B-----------3----------------3----------------3-------------3-----------3------|
G--------------0-------0--------0-------0--------0-------0-----------0---------|
D-----0-------------1----------------------------------------------------------|
A------------------------------------3----------------1-----------3------------|
E--3---------------------------------------------------------------------------|

e--------3----------------3----------------3----------------2--------2---------|
B-----------3----------------3----------------3----------------3--------3------|
G--------------0-------0--------0-------0--------0-------2--------2--------2---|
D-----0-------------1----------------------------------------------------------|
A------------------------------------3----------------5------------------------|
E--3---------------------------------------------------------------------------|

e--3--------3-----3-----5--------5--------5---------10-----------11--------11--|
B-----3--------3-----3-----3--------3--------8--10-------------------0--------0|
G--------2--------2-----------2--------2---------------------------------------|
D------------------------------------------------------------------------------|
A-------------------------------------------------------------0---------0------|
E------------------------------------------------------------------------------|

e-----9--------9----------11--------11--------9--------9-----------------4-----|
B--------0--------0-----------0---------0--------0--------0---------5----4-----|
G-------------------------------------------------------------------6----6-----|
D------------------------------------------------------------------------6-----|
A--0--------0----------0---------0---------0--------0----------4---------------|
E------------------------------------------------------------------------------|

e-----11--------11--------9--------9----------11--------12--------9--------9---|
B---------0---------0--------0--------0-----------0---------0--------0--------0|
G------------------------------------------------------------------------------|
D------------------------------------------------------------------------------|
A--0---------0---------0--------0----------0---------0---------0--------0------|
E------------------------------------------------------------------------------|

e------------------------------------------------------------------------------|
B-----5-----5-------4-----4-------4-----4-------2-----2---------------5-----5--|
G--------6-------------4-------------------------------------------------6-----|
D-----------6-------------4----------2-------------2------------------------6--|
A0-2--4----------2-------------0--------0----0--------0----0--2----4-----------|
E------------------------------------------------------------------------------|

e------------------------------------------------------------------------------|
B-----4-----4-------4-----4-------2-----2--------5----4----2-------------------|
G--------4---------------------------------------6----4----2-------------------|
D-----------4----------2-------------2-----------6----4----2-------------------|
A--2-------------0--------0----0--------0--0--2--4----2----0-------------------|
E------------------------------------------------------------------------------|

e--------3----------------3----------------3-------------------3---------------|
B-----------3----------------3----------------3-------------3------------------|
G--------------0-------0--------0-------0--------0-------0-----------0---------|
D-------------------1----------------------------------------------------------|
A------------------------------------3----------------1-----------0-----0------|
E------------------------------------------------------------------------------|

e--------3----------------3----------------3-------------------3-----------3---|
B-----------3----------------3----------------3-------------3-----------3------|
G--------------0-------0--------0-------0--------0-------0-----------0---------|
D-----0-------------1---------------------------------1-----------3------------|
A------------------------------------3-----------------------------------------|
E--3---------------------------------------------------------------------------|

e--------3----------------3----------------3-------------------3-----------3---|
B-----------3----------------3----------------3-------------3-----------3------|
G--------------0-------0--------0-------0--------0-------0-----------0---------|
D-----0-------------1----------------------------------------------------------|
A------------------------------------3----------------1-----------3------------|
E--3---------------------------------------------------------------------------|

e--------3----------------3----------------3-------------------3---------------|
B-----------3----------------3----------------3-------------3------------------|
G--------------0-------0--------0-------0--------0-------0-----------0---------|
D-----0-------------1----------------------------------------------------------|
A------------------------------------3----------------1-----------0-----0------|
E--3---------------------------------------------------------------------------|

e--------3----------------3----------------3-------------------3---------------|
B-----------3----------------3----------------3-------------3------------------|
G--------------0-------0--------0-------0--------0-------0-----------0---------|
D-----0-------------1----------------------------------------------------------|
A------------------------------------3----------------1-----------0-----0------|
E--3---------------------------------------------------------------------------|

e--------3----------------3----------------3-------------------3-----------3---|
B-----------3----------------3----------------3-------------3-----------3------|
G--------------0-------0--------0-------0--------0-------0-----------0---------|
D-----0-------------1---------------------------------1-----------3------------|
A------------------------------------3-----------------------------------------|
E--3---------------------------------------------------------------------------|

e--------3----------------3----------------3-------------------3-----------3---|
B-----------3----------------3----------------3-------------3-----------3------|
G--------------0-------0--------0-------0--------0-------0-----------0---------|
D-----0-------------1----------------------------------------------------------|
A------------------------------------3----------------1-----------3------------|
E--3---------------------------------------------------------------------------|
     overdrive: 'Is there anybody listening?'
e--2---------------------------------------------------------------------------|
B--3---------------------------------------------------------------------------|
G--2-------------------------------------5-----------------------------8--8----|
D--0--------5--5-------------------------5----3----------------5--5----8--8----|
A-----------5--5-------------------------3----3--0--1--0-------5--5----6--6----|
E-----------3--3------------------------------1-----------1----3--3------------|
            ^
e--------2---------------------------------------------------------------------|
B--------3---------------------------------------------------------------------|
G--5--5--2--2--3--2------------3----3----5----5----8----8------------3---3-----|
D--5--5--0-------------5--5----3----3----5----5----8----8----5--5----3---3-----|
A--3--3----------------5--5----1----1----3----3----6----6----5--5----1---1-----|
E----------------------3--3----------------------------------3--3--------------|
                       (solo begins here:) 
e--2----3----5-----------------------------------------------------------------|
B--3----3----3----3------------------------------------------------------------|
G--2----2----2----2------------------------------------------------------------|
D--0----0----0----0------------0--1--0--1----5----3----------------5--1--0--1--|
A---------------------------3----------------3-------0--1--0-------------------|
E----------------------3--------------------------1-----------1----3-----------|

e-------------------------------------------------------------------2----3-----|
B-------------------------------------------------------------------3----3-----|
G-------------------------------------------------------------------2----2-----|
D--5---------5--1--0--1----5----3----------------5----5----5--------0----0-----|
A--3----5----5-------------3-------0--1--0-------5----6----3-------------------|
E------------3------------------1-----------1----3-----------------------------|
                                                       clean:
e--4----5----3----3----3----3----3----2----2----2----2-----------14------------|
B--3----3----3----3----3----3----3----3----3----3----3---------------15--------|
G--2----2----2----2----2----2----2----2----2----2----2-------------------14----|
D--0----0----0----0----0----0----0----0----0----0----0--------0----------------|
A------------------------------------------------------------------------------|
E------------------------------------------------------------------------------|
                                                              ^
e--14----------13-----------13----------13------12------------10---------------|
B------15----------15-----------15------------------15------------13-----------|
G----------14----------14-----------14------14----------14------------12-------|
D--------------0--------------------------------0-------------0----------------|
A------------------------------------------------------------------------------|
E------------------------------------------------------------------------------|

e------------------8----------8---------7---------7---------7-----7---------7--|
B--13------13---------11---------11--------10--------10--------------10--------|
G------12------10---------10-------------------9---------9-----9---------9-----|
D--------------0---------------------0-----------------------------------------|
A------------------------------------------------------------------------------|
E------------------------------------------------------------------------------|

e---------7---------7--------------11--------11--------9--------9--------11----|
B--10--------10--------10--------------0---------0--------0--------0---------0-|
G------9---------9---------9---------------------------------------------------|
D------------------------------------------------------------------------------|
A-------------------------------0---------0---------0--------0--------0--------|
E------------------------------------------------------------------------------|

e-----11--------9--------9-----------------4-------11--------11--------9-------|
B---------0--------0--------0---------5----4-----------0---------0--------0----|
G-------------------------------------6----6-----------------------------------|
D------------------------------------------6-----------------------------------|
A--0---------0--------0----------4--------------0---------0---------0--------0-|
E------------------------------------------------------------------------------|

e--9--------11--------12--------9--------9-------------------------------------|
B-----0---------0---------0--------0--------0-------5-----5-------4-----4------|
G------------------------------------------------------6-------------4---------|
D---------------------------------------------------------6-------------4------|
A--------0---------0---------0--------0---------0-2-4----------2---------------|
E------------------------------------------------------------------------------|

e------------------------------------------------------------------------------|
B-----4-----4-------2-----2-------------5-----5-------4-----4-------4-----4----|
G------------------------------------------6-------------4---------------------|
D--------2-------------2----------------------6-------------4----------2-------|
A--0--------0----0--------0----0--2--4-------------2-------------0--------0----|
E------------------------------------------------------------------------------|

e-------------------------------------3----------------3----------------3------|
B-----2-----2----------5----4----2-------3----------------3----------------3---|
G----------------------6----4----2----------0-------0--------0-------0--------0|
D--------2-------------6----4----2---------------1-----------------------------|
A--0--------0----0--2--4----2----0--------------------------------3------------|
E------------------------------------------------------------------------------|
overdrive:       'Is there anybody listening?'
e---2----2-|-------------------------------------------------------------------|
B---3----3-|-------------------------------------------------------------------|
G---2----2-|o-----------------------------5-------------------------8--8--5--5-|
D---0----0-|o-5--5------------------------5----3--------------5--5--8--8--5--5-|
A----------|--5--5------------------------3----3--0--1--0-----5--5--6--6--3--3-|
E----------|--3--3-----------------------------1-----------1--3--3-------------|
    ^
e--2---------------------------------------------------------------------------|
B--3---------------------------------------------------------------------3-----|
G--2--2--3--2----------3---3----5----5----8----8------------3----3-------2-----|
D--------------5--5----3---3----5----5----8----8----5--5----3----3-------0-----|
A--------------5--5----1---1----3----3----6----6----5--5----1----1-------------|
E--------------3--3---------------------------------3--3-----------------------|

e-----|------------------------------------------------------------------------|
B--3--|-3----3----3----3----3----3----3----3----3----3----3--------------------|
G--2-o|-2----2----2----2----2----2----2----2----2----2----2--------------------|
D--0-o|-0----0----0----0----0----0----0----0----0----0----0--------------------|
A-----|------------------------------------------------------------------------|
E-----|------------------------------------------------------------------------|
clean:
e-----14----------14----------13----------13----------13------12---------------|
B---------15----------15----------15----------15------------------15-----------|
G-------------14----------14----------14----------14------14----------14-------|
D--0--------------------------0-------------------------------0----------------|
A------------------------------------------------------------------------------|
E------------------------------------------------------------------------------|
   ^                                                rit.
e--10----------------------------8----------8---------7---------7---------7----|
B------13--------13------13---------11---------11--------10--------10----------|
G----------12--------12------10---------10-------------------9---------9-----9-|
D--0-------------------------0---------------------0---------------------------|
A------------------------------------------------------------------------------|
E------------------------------------------------------------------------------|

e--7---------7---------7---------7----------------11--------11--------"9------|
B-----10--------10--------10--------10----------------0---------0-----"0------|
G---------9---------9---------9---------9---"9------------------------"9------|
D-------------------------------------------"7------------------------"7------|
A-------------------------------------------"0-----------0---------0--"0------|
E-----------------------------------------------------------------------------|





Comments


Popular Nemisis tabs & chords
California Sucks Tabs
Every Night Tabs
Fathead Tabs
Good Morning Tabs
Its Not Enough Tabs
Linger Tabs
Nothing Matters Tabs
Pinkhouse Tabs
Punk Song Tabs
Sammys Song Tabs


Song lyrics



↑ Back to top | Tablatures and chords are parodies/interpretations of the original songs. You may use it for private study, scholarship, research or language learning purposes only
© 2014 AZChords.com Contact us | Privacy policy | DMCA | Add/correct tabs | Request tabs | Top 50 tabs