» » »

American Suicide Tabs (ver.1)

Artists:  A B C D E F G H I J K L M N O P Q R S T U V W X Y Z # 

American Suicide Tabs (ver.1)

Nemisis
Rating:
0/5 (0 votes)

Hard to play? Try these video lessons and learn fast.
                3xs
e|-------------------------------------------|
B|-------------------------------------------|
G|-------------------------------------------|
D|---11-----6-----7---11-----6-----7---------|
A|---9------4-----5----9-----4-----5---------|
E|-------------------------------------------|

2xs
e|-------------------------------------------|
B|-------------------------------------------|
G|-------------------------------------------|
D|--9-----6----11--12--11--12--11------------|
A|--7-----4-----9--10---9--10---9------------|
E|-------------------------------------------|
3xs

e|-------------------------------------------|
B|-------------------------------------------|
G|-------------------------------------------|
D|---11-----6-----7---11-----6-----7---------|
A|---9------4-----5-----9----4-----5---------|
E|-------------------------------------------|

2xs
e|-------------------------------------------|
B|-------------------------------------------|
G|-------------------------------------------|
D|--9-----6----11--12--11--12--11------------|
A|--7-----4-----9--10---9--10---9------------|
E|-------------------------------------------|

3xs
e|-------------------------------------------|
B|-------------------------------------------|
G|-------------------------------------------|
D|---11-----6-----7---11-----6-----7---------|
A|---9------4-----5----9-----4-----5---------|
E|-------------------------------------------|

2xs
e|-------------------------------------------|
B|-------------------------------------------|
G|-------------------------------------------|
D|--9-----6----11--12--11--12--11------------|
A|--7-----4-----9--10---9--10---9------------|
E|-------------------------------------------|
            
Hard to play? Try these video lessons and learn fast. | Correct




comments powered by Disqus
↑ Back to top | Tablatures and chords are parodies/interpretations of the original songs. You may use it for private study, scholarship, research or language learning purposes only