>
 >
Run

Run Guitar Tabs

Nemesis Of Dissonance - Run chords, tabs, tablatures, lyrics

Guitar lessons | Add/correct | Request | Top 50 tabs Artists:  A B C D E F G H I J K L M N O P Q R S T U V W X Y Z 0-9

Run Guitar Tabs – Nemesis Of Dissonance

CD, Sheet music, Poster

Do you like Run? Share with your friends now
Tabs
Drop D

~~~ = let it ring 
... = palm muted

(intro: this is played on teh bass 4 times)
|-------------------------------------------|
|-------------------------------------------|
|-------------------------------------------|
|---------------------------------------5-4-|
|-1-1-2---------2-0-0-0-3-0-0-0-4-0-0-0-----|
|-------1-0-0-0-----------------------------| 

(intro: play this on guitar everytime teh bass playes the 1-1-2-...play this 4 times with distortion)
(both guitars)
|-------------------------------------------|
|-------------------------------------------|
|-------------------------------------------|
|-2-2-2-------------------------------------|
|-2-2-2-------------------------------------|
|-2-2-2-------------------------------------|

(Chorus: play 2 times with distortion)
(1st guitar)
|--------------------------------------------|
|--------------------------------------------|
|-7--7--9--9--10-10--5--55--3-333-333--222222|
|-7--7--9--9--10-10--5--55--1-111-111--222222|
|-5--5--7--7---8--8--3--33--1-111-111--000000|
|----.-----.------.---------1-111-111--000000|

(2nd guitar play this at the exact same time as the 1st guitar with distortion)
|---------------------------------------------|
|---------------------------------------------|
|-7--9--10--5--55--1010101010101010-999999999-|
|-7--9--10--5--55---x-x-x-x-x-x-x-x-xxxxxxxxx-|
|-5--7---8--3--33---8-8-8-8-8-8-8-8-777777777-|
|---------------------------------------------|

(Verse: play this 2 times with distortion) 
(both guitars)
|---------------------------------------------------------------|
|---------------------------------------------------------------|
|---------------------------------------------------------------|
|2--2-2--2-3-2--2-2-2--2-3-2--2-2-2--2-3-2--2-2-2--2--2-3-2-0-2-|
|2--2-2--2-3-2--2-2-2--2-3-2--2-2-2--2-3-2--2-2-2--2--2-3-2-0-2-|
|2--2-2--2-3-2--2-2-2--2-3-2--2-2-2--2-3-2--2-2-2--2--2-3-2-0-2-| 
    . .         . . .         . . .         . . .

(Pre-Chorus: play this 2 times with distortion)
(1st guitar)
|----------------------------------------------------|
|----------------------------------------------------|
|----------------------------------------------------|
|-2--2--999999999//5555555--2--2--555555555//7777777-|
|-2--2--xxxxxxxxx//xxxxxxx--2--2--xxxxxxxxx//xxxxxxx-|
|-2--2--777777777//3333333--2--2--333333333//5555555-| 

(2nd guitar play this at teh exact same time as the first guitar)
|-----------------------------------------------------|
|-------10-10-10-10-10--5-5-5--------6-6-6-6-6--3-3-3-|
|--------x--x--x--x--x--x-x-x--------x-x-x-x-x--x-x-x-|
|-2--2---7--7--7--7--7--3-3-3--2--2--3-3-3-3-3--0-0-0-|
|-2--2---7--7--7--7--7--3-3-3--2--2--3-3-3-3-3--0-0-0-|
|-2--2---7--7--7--7--7--3-3-3--2--2--3-3-3-3-3--0-0-0-|

(Chorus: play this 2 times with distortion)
(1st guitar)
|--------------------------------------------|
|--------------------------------------------|
|-7--7--9--9--10-10--5--55--3-333-333--222222|
|-7--7--9--9--10-10--5--55--1-111-111--222222|
|-5--5--7--7---8--8--3--33--1-111-111--000000|
|----.-----.------.---------1-111-111--000000|

(2nd guitar play at the exact same time as teh 1st one)
|---------------------------------------------|
|----------------------------=----------------|
|-7--9--10--5--55--1010101010101010-999999999-|
|-7--9--10--5--55---x-x-x-x-x-x-x-x-xxxxxxxxx-|
|-5--7---8--3--33---8-8-8-8-8-8-8-8-777777777-|
|---------------------------------------------| 

(Verse 2: play 2 times with distortion)
(Both guitars)
|---------------------------------------------------------------|
|---------------------------------------------------------------|
|---------------------------------------------------------------|
|2--2-2--2-3-2--2-2-2--2-3-2--2-2-2--2-3-2--2-2-2--2--2-3-2-0-2-|
|2--2-2--2-3-2--2-2-2--2-3-2--2-2-2--2-3-2--2-2-2--2--2-3-2-0-2-|
|2--2-2--2-3-2--2-2-2--2-3-2--2-2-2--2-3-2--2-2-2--2--2-3-2-0-2-| 
    . .         . . .         . . .         . . . 

(Pre-Chorus: play this 2 times with distortion)
(1st guitar)
|----------------------------------------------------|
|----------------------------------------------------|
|----------------------------------------------------|
|-2--2--999999999//5555555--2--2--555555555//7777777-|
|-2--2--xxxxxxxxx//xxxxxxx--2--2--xxxxxxxxx//xxxxxxx-|
|-2--2--777777777//3333333--2--2--333333333//5555555-| 

(2nd guitar play at the exact same time as first guitar with distortion)
|-----------------------------------------------------|
|-------10-10-10-10-10--5-5-5--------6-6-6-6-6--3-3-3-|
|--------x--x--x--x--x--x-x-x--------x-x-x-x-x--x-x-x-|
|-2--2---7--7--7--7--7--3-3-3--2--2--3-3-3-3-3--0-0-0-|
|-2--2---7--7--7--7--7--3-3-3--2--2--3-3-3-3-3--0-0-0-|
|-2--2---7--7--7--7--7--3-3-3--2--2--3-3-3-3-3--0-0-0-|  

(Chorus: play this 4 times with distortion)
(1st guitar)
|--------------------------------------------|
|--------------------------------------------|
|-7--7--9--9--10-10--5--55--3-333-333--222222|
|-7--7--9--9--10-10--5--55--1-111-111--222222|
|-5--5--7--7---8--8--3--33--1-111-111--000000|
|----.-----.------.---------1-111-111--000000|

(2nd guitar play at the exact same time as the first guitar)
|---------------------------------------------|
|---------------------------------------------|
|-7--9--10--5--55--1010101010101010-999999999-|
|-7--9--10--5--55---x-x-x-x-x-x-x-x-xxxxxxxxx-|
|-5--7---8--3--33---8-8-8-8-8-8-8-8-777777777-|
|---------------------------------------------| 

(Bridge: play it 8 times with distortion)
(both guitars)
|--------------------------------|
|--------------------------------|
|--------------------------------|
|-0--0-0-0--3-2--0--0-0-0--2-5-3-|
|-0--0-0-0--3-2--0--0-0-0--2-5-3-|
|-0--0-0-0--3-2--0--0-0-0--2-5-3-|
  .  . . .       .  . . .

(Chorus: play 4 times with distortion)
(1st guitar)
|--------------------------------------------|
|--------------------------------------------|
|-7--7--9--9--10-10--5--55--3-333-333--222222|
|-7--7--9--9--10-10--5--55--1-111-111--222222|
|-5--5--7--7---8--8--3--33--1-111-111--000000|
|----.-----.------.---------1-111-111--000000|

(2nd guitar play at the exact same time as the first one)
|---------------------------------------------|
|----------------------------=----------------|
|-7--9--10--5--55--1010101010101010-999999999-|
|-7--9--10--5--55---x-x-x-x-x-x-x-x-xxxxxxxxx-|
|-5--7---8--3--33---8-8-8-8-8-8-8-8-777777777-|
|---------------------------------------------| 

(Bridge: play it once with distortion)
(both guitars)
|--------------------------------|
|--------------------------------|
|--------------------------------|
|-0--0-0-0--3-2--0--0-0-0--2-5-3-|
|-0--0-0-0--3-2--0--0-0-0--2-5-3-|
|-0--0-0-0--3-2--0--0-0-0--2-5-3-|
  .  . . .      .  . . .
                


Lyrics:

Verse: Trace! who the hell are you? 
       you keep on following me everywhere!
       is there any problem MR.666 
       because i can handle everything
       your in my game now ***er 
       your going to play the price to play 
       but noone messes with my rules 
       put yourself in my own ***ing shoes 

Pre-Chorus: run run cant feel more alive then this
            run run i will not stay in this place
            run run cant feel more alive then this
            run run i will not stay in this place

Chorus: This This...this is my last minutes 
        from breaking your face 
        its you ill erase 

Verse 2: So now what you gonna do? 
         Theres no else helping you
         Mr.666 you can do better then this
         What did you exepect of yourself instead of this
         Im ***ign good at rhyming aint i 
         Shove it up your ass and make u cry 
         As i said your in my ***ing game  
         leave me alone and let me aim 

Pre-Chorus: run run cant feel more alive then this
            run run i will not stay in this place
            run run cant feel more alive then this
            run run i will not stay in this place  

Chorus: This This...this is my last minutes 
        from breaking your face 
        its you ill erase  

Bridge: Try killing me
        its not my ***ing time yet  
        Try killing me
        its not my ***ing time yet 
        Try killing me
        its not my ***ing time yet  
        Try killing me
        its not my ***ing time yet  
        
Chorus: This This...this is my last minutes 
        from breaking your face 
        its you ill erase





Comments


Popular Nemesis Of Dissonance tabs & chords
A Milion Pieces Tabs
Against Someone Tabs
Help Me Tabs
I Could Tabs
Look Around Tabs
Paranoia Or Revalution Tabs


Song lyrics



↑ Back to top | Tablatures and chords are parodies/interpretations of the original songs. You may use it for private study, scholarship, research or language learning purposes only
© 2014 AZChords.com Contact us | Privacy policy | DMCA | Add/correct tabs | Request tabs | Top 50 tabs