>
 >
Paranoia Or Revalution

Paranoia Or Revalution Guitar Tabs

Nemesis Of Dissonance - Paranoia Or Revalution chords, tabs, tablatures, lyrics

Guitar lessons | Add/correct | Request | Top 50 tabs Artists:  A B C D E F G H I J K L M N O P Q R S T U V W X Y Z 0-9

Paranoia Or Revalution Guitar Tabs – Nemesis Of Dissonance

CD, Sheet music, Poster

Do you like Paranoia Or Revalution? Share with your friends now
Tabs
Drop D 

~~~ = let it ring

(Intro: play it once no distortion (1st guitar)
|-------------------------------------------------|
|-------------------------------------------------|
|-------------------------------------------------|
|---------7~~~----7---------------3~~~----3-------|
|-5-5-5-5-----5-5---5--3--1-1-1-1-----1-1---1--3--|
|-------------------------------------------------| 

(intro: play both of these guitar parts at the same time once more with no distortion)
(1st guitar) 
|-------------------------------------------------|
|-------------------------------------------------|
|-------------------------------------------------|
|---------7~~~----7---------------3~~~----3-------|
|-5-5-5-5-----5-5---5--3--1-1-1-1-----1-1---1--3--|
|-------------------------------------------------| 

(2nd guitarist) 
|-------------------------------------------------|
|-------------------------------------------------|
|-------------------------------------------------|
|---------7~~~------7-5-3---------3~~~------3--2--|
|-5-5-5-5-----5-5-5-------1-1-1-1-----1-1-1-------|
|-------------------------------------------------|  

(Interlude: play 1st guitar twice with no distortion) 
|------------------------------------------------------------------|
|------------------------------------------------------------------|
|------------------------------------------------------------------|
|-7-7-7-7-7-7-7-7-7-7-7-7-7//5//3-3-3-3-3-3-3-3-3-3-3-3-3//8-8-8//-|
|-5-5-5-5-5-5-5-5-5-5-5-5-5//3//1-1-1-1-1-1-1-1-1-1-1-1-1//6-6-6//-|
|------------------------------------------------------------------| 

(Interlude: play 1st and 2nd guitarist at the same time tiwce with no distortion) 
(1st guitar) 
|------------------------------------------------------------------|
|------------------------------------------------------------------|
|------------------------------------------------------------------|
|-7-7-7-7-7-7-7-7-7-7-7-7-7//5//3-3-3-3-3-3-3-3-3-3-3-3-3//8-8-8//-|
|-5-5-5-5-5-5-5-5-5-5-5-5-5//3//1-1-1-1-1-1-1-1-1-1-1-1-1//6-6-6//-|
|------------------------------------------------------------------|  

(2nd guitar) 
|-------------------------------------------------------------------------------------------------|
|-------------------------------------------------------------------------------------------------|
|-14-14-14-14-14-14-14-14-14-14-14-14-14-14-15-15-12-12-12-12-12-12-12-12-12-12-12-12-12-12-15-15-|
|--x--x--x--x--x--x--x--x--x--x--x--x--x--x--x--x--x--x--x--x--x--x--x--x--x--x--x--x--x--x--x--x-|
|-12-12-12-12-12-12-12-12-12-12-12-12-12-12-13-13-10-10-10-10-10-10-10-10-10-10-10-10-10-10-10-10-|
|-------------------------------------------------------------------------------------------------| 

(Chorus: play with both guitars 3 times with distortion) 
|---------------------------------|
|---------------------------------|
|---------------------------------|
|-5-5-5-3-3-3-8-8-8-7-7-7-8-8-7-7-|
|-5-5-5-3-3-3-8-8-8-7-7-7-8-8-7-7-|
|-5-5-5-3-3-3-8-8-8-7-7-7-8-8-7-7-| 

(right away play this with both guitars once with distortion) 
|------------------------------------|
|------------------------------------|
|------------------------------------|
|-1-1-1-1-1-1-1-1-1-1-3-3-3-0~~~~~~~-|
|-1-1-1-1-1-1-1-1-1-1-3-3-3-0~~~~~~~-|
|-1-1-1-1-1-1-1-1-1-1-3-3-3-0~~~~~~~-| 

(Verse: play with both guitars 8 times with distortion) 
|-----------------------|
|-----------------------|
|-----------------------|
|-6-0-0-6-0-0-6-7-6-0-0-|
|-6-0-0-6-0-0-6-7-6-0-0-|
|-6-0-0-6-0-0-6-7-6-0-0-|

2nd part of verse: play 4 times with distortion both guitars) 
|-----------------|
|-----------------|
|-6~~~0-6~~~0-6-0-|
|-6~~~0-6~~~0-6-0-|
|-6~~~0-6~~~0-6-0-|

(Chorus: play with both guitars 3 times with distortion) 
|---------------------------------|
|---------------------------------|
|---------------------------------|
|-5-5-5-3-3-3-8-8-8-7-7-7-8-8-7-7-|
|-5-5-5-3-3-3-8-8-8-7-7-7-8-8-7-7-|
|-5-5-5-3-3-3-8-8-8-7-7-7-8-8-7-7-|  

(right away play this with both guitars once with distortion) 
|------------------------------------|
|------------------------------------|
|------------------------------------|
|-1-1-1-1-1-1-1-1-1-1-3-3-3-0~~~~~~~-|
|-1-1-1-1-1-1-1-1-1-1-3-3-3-0~~~~~~~-|
|-1-1-1-1-1-1-1-1-1-1-3-3-3-0~~~~~~~-| 

(pre bridge: play 3 times both guitars play same time but diferent part...use distortion) 
(1st guitar)
|-----------------------------------|
|-----------------------------------|
|-----------------------------------|
|-7-7-7-6-6-6-------3-3-3-2-2-2-0-0-|
|-7-7-7-6-6-6-------3-3-3-2-2-2-0-0-|
|-7-7-7-6-6-6-------3-3-3-2-2-2-0-0-| 

(2nd guitar) 
|-----------------------------------|
|-----------------------------------|
|-----------------------------------|
|-7-7-7-6-6-6-9-9-9-3-3-3-2-2-2-0-0-|
|-7-7-7-6-6-6-9-9-9-3-3-3-2-2-2-0-0-|
|-7-7-7-6-6-6-9-9-9-3-3-3-2-2-2-0-0-| 

(right away play this with both guitars once with distortion) 
|------------------------------------|
|------------------------------------|
|------------------------------------|
|-1-1-1-1-1-1-1-1-1-1-3-3-3-0~~~~~~~-|
|-1-1-1-1-1-1-1-1-1-1-3-3-3-0~~~~~~~-|
|-1-1-1-1-1-1-1-1-1-1-3-3-3-0~~~~~~~-|  

(Verse: play with both guitars 3 times with distortion) 
|-----------------------|
|-----------------------|
|-----------------------|
|-6-0-0-6-0-0-6-7-6-0-0-|
|-6-0-0-6-0-0-6-7-6-0-0-|
|-6-0-0-6-0-0-6-7-6-0-0-| 

(play this last time right away) 
|------------------------------------------|
|------------------------------------------|
|------------------------------------------|
|-6-0-0-6-0-0-6-7-6-0-0~~~~~~~~~~~~~~~~~~~~|
|-6-0-0-6-0-0-6-7-6-0-0~~~~~~~~~~~~~~~~~~~~|
|-6-0-0-6-0-0-6-7-6-0-0~~~~~~~~~~~~~~~~~~~~| 

(while chords start ringing 2nd guitar goes in right away playing this 4 times with distortion) 
|-------------------------------------------------------------------------------------------------|
|-------------------------------------------------------------------------------------------------|
|-14-14-14-14-14-14-14-14-14-14-14-14-14-14-15-15-12-12-12-12-12-12-12-12-12-12-12-12-12-12-15-15-|
|--x--x--x--x--x--x--x--x--x--x--x--x--x--x--x--x--x--x--x--x--x--x--x--x--x--x--x--x--x--x--x--x-|
|-12-12-12-12-12-12-12-12-12-12-12-12-12-12-13-13-10-10-10-10-10-10-10-10-10-10-10-10-10-10-10-10-|
|-------------------------------------------------------------------------------------------------| 

(Chorus: play with both guitars 3 times with distortion) 
|---------------------------------|
|---------------------------------|
|---------------------------------|
|-5-5-5-3-3-3-8-8-8-7-7-7-8-8-7-7-|
|-5-5-5-3-3-3-8-8-8-7-7-7-8-8-7-7-|
|-5-5-5-3-3-3-8-8-8-7-7-7-8-8-7-7-|  

(right away play this with both guitars once with distortion) 
|------------------------------------|
|------------------------------------|
|------------------------------------|
|-1-1-1-1-1-1-1-1-1-1-3-3-3-0~~~~~~~-|
|-1-1-1-1-1-1-1-1-1-1-3-3-3-0~~~~~~~-|
|-1-1-1-1-1-1-1-1-1-1-3-3-3-0~~~~~~~-|  

(Verse: play with both guitars 8 times with distortion) 
|-----------------------|
|-----------------------|
|-----------------------|
|-6-0-0-6-0-0-6-7-6-0-0-|
|-6-0-0-6-0-0-6-7-6-0-0-|
|-6-0-0-6-0-0-6-7-6-0-0-|

2nd part of verse: play 4 times with distortion both guitars) 
|-----------------|
|-----------------|
|-6~~~0-6~~~0-6-0-|
|-6~~~0-6~~~0-6-0-|
|-6~~~0-6~~~0-6-0-| 

(Interlude: play 1st and 2nd guitarist at the same time tiwce with no distortion) 
(1st guitar) 
|------------------------------------------------------------------|
|------------------------------------------------------------------|
|------------------------------------------------------------------|
|-7-7-7-7-7-7-7-7-7-7-7-7-7//5//3-3-3-3-3-3-3-3-3-3-3-3-3//8-8-8//-|
|-5-5-5-5-5-5-5-5-5-5-5-5-5//3//1-1-1-1-1-1-1-1-1-1-1-1-1//6-6-6//-|
|------------------------------------------------------------------|  

(2nd guitar) 
|-------------------------------------------------------------------------------------------------|
|-------------------------------------------------------------------------------------------------|
|-14-14-14-14-14-14-14-14-14-14-14-14-14-14-15-15-12-12-12-12-12-12-12-12-12-12-12-12-12-12-15-15-|
|--x--x--x--x--x--x--x--x--x--x--x--x--x--x--x--x--x--x--x--x--x--x--x--x--x--x--x--x--x--x--x--x-|
|-12-12-12-12-12-12-12-12-12-12-12-12-12-12-13-13-10-10-10-10-10-10-10-10-10-10-10-10-10-10-10-10-|
|-------------------------------------------------------------------------------------------------| 

(outro: play it once no distortion (1st guitar)
|-------------------------------------------------|
|-------------------------------------------------|
|-------------------------------------------------|
|---------7~~~----7---------------3~~~----3-------|
|-5-5-5-5-----5-5---5--3--1-1-1-1-----1-1---1--3--|
|-------------------------------------------------|  

(outro: play it once no distortion (1st guitar)
|-----------------------------------------------------------------|
|-----------------------------------------------------------------|
|-----------------------------------------------------------------|
|---------7~~~----7---------------3~~~--------3-------------------|
|-5-5-5-5-----5-5---5--3--1-1-1-1-----1---1-------1---3---5~~~~~~~|
|-----------------------------------------------------------------|





Comments


Popular Nemesis Of Dissonance tabs & chords
A Milion Pieces Tabs
Against Someone Tabs
Help Me Tabs
I Could Tabs
Look Around Tabs
Run Tabs


Song lyrics



↑ Back to top | Tablatures and chords are parodies/interpretations of the original songs. You may use it for private study, scholarship, research or language learning purposes only
© 2014 AZChords.com Contact us | Privacy policy | DMCA | Add/correct tabs | Request tabs | Top 50 tabs