» » »

Nemesis Of Dissonance, Look Around Tabs (ver.1)

Artists:  A B C D E F G H I J K L M N O P Q R S T U V W X Y Z # 

Look Around Tabs (ver.1)

Nemesis Of Dissonance Tabs
 Rating:
4/5 (4 votes)
Look Around lessons Tabs too difficult? Try these video lessons and learn fast
                This is a song made by our band Nemesis oF Dissonance hope you guys like it.

Drop D tunning


/////// - bend strings up


(verse play 4x's)
|------------------------------------------------|--------------------------------|--------------------------------|--------------------------------|
|------------------------------------------------|--------------------------------|--------------------------------|--------------------------------|
|------------------------------------------------|--------------------------------|--------------------------------|--------------------------------|
|------------------------------------------------|--------------------------------|--------------------------------|--------------------------------|
|-10-10-10-10-10-10-10-10-10-10-10-10-10-10-10-10|-9-9-9-9-9-9-9-9-9-9-9-9-9-9-9-9|-5-5-5-5-5-5-5-5-5-5-5-5-5-5-5-5|-7-7-7-7-7-7-7-7-7-7-7-7-7-7-7-7|
|--0--0--0--0--0--0--0--0--0--0--0--0--0--0--0--0|-0-0-0-0-0-0-0-0-0-0-0-0-0-0-0-0|-0-0-0-0-0-0-0-0-0-0-0-0-0-0-0-0|-0-0-0-0-0-0-0-0-0-0-0-0-0-0-0-0| 

(at the end of the verse play this 1x right after)
|---------------------------------------------------|
|---------------------------------------------------|
|--------------6-6-6-7-7-7--------------7-7-7-6-6-6-|
|-22--22--22---X-X-X-X-X-X--22--22--22--X-X-X-X-X-X-|
|-22--22--22---4-4-4-5-5-5--22--22--22--5-5-5-4-4-4-|
|-22--22--22----------------22--22--22--------------| 

(play 1 time right after teh one shown above)
|----------------------------------------------------------|
|----------------------------------------------------------|
|--------------6-6-6-7-7-7--------------7-7-7-6-6-6////////|
|-22--22--22---X-X-X-X-X-X--22--22--22--X-X-X-X-X-X////////|
|-22--22--22---4-4-4-5-5-5--22--22--22--5-5-5-4-4-4////////|
|-22--22--22----------------22--22--22---------------------| 

(chorus play this 3x's)  
|-----------------------------------------|
|-----------------------------------------|
|-----------------------9-9-9-9-9-9-9-9-9-|
|-333-222-333-222-33-2--X-X-X-X-X-X-X-X-X-|
|-333-222-333-222-33-2--7-7-7-7-7-7-7-7-7-|
|-333-222-333-222-33-2--------------------| 

(end of chorus play this once right after the 3 times shown above)
|-------------------------------------------------|
|-------------------------------------------------|
|-----------------------9-9-9-9-9-9-9-9-9/////////|
|-333-222-333-222-33-2--X-X-X-X-X-X-X-X-X/////////|
|-333-222-333-222-33-2--7-7-7-7-7-7-7-7-7/////////|
|-333-222-333-222-33-2----------------------------| 

(staright a way u move to this part...play it 6x's)
|------------------------------------------------|--------------------------------|--------------------------------|--------------------------------|
|------------------------------------------------|--------------------------------|--------------------------------|--------------------------------|
|------------------------------------------------|--------------------------------|--------------------------------|--------------------------------|
|------------------------------------------------|--------------------------------|--------------------------------|--------------------------------|
|-10-10-10-10-10-10-10-10-10-10-10-10-10-10-10-10|-9-9-9-9-9-9-9-9-9-9-9-9-9-9-9-9|-5-5-5-5-5-5-5-5-5-5-5-5-5-5-5-5|-7-7-7-7-7-7-7-7-7-7-7-7-7-7-7-7|
|--0--0--0--0--0--0--0--0--0--0--0--0--0--0--0--0|-0-0-0-0-0-0-0-0-0-0-0-0-0-0-0-0|-0-0-0-0-0-0-0-0-0-0-0-0-0-0-0-0|-0-0-0-0-0-0-0-0-0-0-0-0-0-0-0-0|  

(end of the verse play this 2x's after the 4 times u play the verse)
|---------------------------------------------------|
|---------------------------------------------------|
|--------------6-6-6-7-7-7--------------7-7-7-6-6-6-|
|-22--22--22---X-X-X-X-X-X--22--22--22--X-X-X-X-X-X-|
|-22--22--22---4-4-4-5-5-5--22--22--22--5-5-5-4-4-4-|
|-22--22--22----------------22--22--22--------------| 

(play 1 time right after teh one shown above)
|----------------------------------------------------------|
|----------------------------------------------------------|
|--------------6-6-6-7-7-7--------------7-7-7-6-6-6////////|
|-22--22--22---X-X-X-X-X-X--22--22--22--X-X-X-X-X-X////////|
|-22--22--22---4-4-4-5-5-5--22--22--22--5-5-5-4-4-4////////|
|-22--22--22----------------22--22--22---------------------| 

(chorus play this 4x's)  
|----------------------------------------|
|----------------------------------------|
|-----------------------9-9-9-9-9-9-9-9-9|
|-333-222-333-222-33-2--X-X-X-X-X-X-X-X-X|
|-333-222-333-222-33-2--7-7-7-7-7-7-7-7-7|
|-333-222-333-222-33-2-------------------| 

(bridge play it once) 
|-------------------------------------------------------------------------------------------------|
|-------------------------------------------------------------------------------------------------|
|-------------------------------------------------------------------------------------------------|
|-2-2-2-2--2-2-2-2--2-2-2---2-2-2-2--2-2-2-2--2-2-2---2-2-2-2--2-2-2-2--2-2-2---2-2-2-2--2-2-2-2--|
|-2-2-2-2--2-2-2-2--2-2-2---2-2-2-2--2-2-2-2--2-2-2---2-2-2-2--2-2-2-2--2-2-2---2-2-2-2--2-2-2-2--|
|-2-2-2-2--2-2-2-2--2-2-2---2-2-2-2--2-2-2-2--2-2-2---2-2-2-2--2-2-2-2--2-2-2---2-2-2-2--2-2-2-2--|  

(chorus play this 7x's)  
|----------------------------------------|
|----------------------------------------|
|-----------------------9-9-9-9-9-9-9-9-9|
|-333-222-333-222-33-2--X-X-X-X-X-X-X-X-X|
|-333-222-333-222-33-2--7-7-7-7-7-7-7-7-7|
|-333-222-333-222-33-2-------------------| 

(the last time for the chorus after the 7 times will be this play it once rigth after the 7 times)
|-----------------------------------------------------|
|-----------------------------------------------------|
|-----------------------9-9-9-9-9-9-9-9-9~~~~~~~~~~~~~|
|-333-222-333-222-33-2--X-X-X-X-X-X-X-X-X~~~~~~~~~~~~~|
|-333-222-333-222-33-2--7-7-7-7-7-7-7-7-7~~~~~~~~~~~~~|
|-333-222-333-222-33-2--------------------------------|


Lyrics: 

Look around you

Verse: when pain spreads out
       we all feel something
       something that can hurt us
       hurt us deep inside 
       our world is fallign apart
       the world is falling down
       look into my eyes
       and see what i see 
       blood all over
       in childrens playgrounds
       man trapped in barbed wire
       people suffering 
       without a reason
       cant do anything
       its to strong for me 
       WAKE UP WAKE UP WAKE UP 
       LOOK AROUND US 
       WAKE UP WAKE UP WAKE UP
       SO MANY DEAD PEOPLE
       WAKE UP WAKE UP WAKE UP
       I WANT THIS TO STOP 
       WAKE UP WAKE WAKE UP 
       BUT THIS IS WAR

Chorus: im falling down 
        falling down 
        and noone is helping me
        i need you here 
        i need your hand 
        i need someone to protect me (2x's)

Verse: After the trust is gone
       i wont be able to get up
       noone helped me
       but please just this once
       i cant see what i am seeing
       its soo much blood so much pain
       its a bomb falling off
       and thousand people dying
       why do you have to be liek this
       why does this need to happen 
       the world falling apart 
       the world is fallign down 
       people hanged by their own heads
       its soo much horror 
       so much suffering
       all these families 
       that have lost relatives 
       they are crying they are killing themselfs  
       WAKE UP WAKE UP WAKE UP 
       LOOK AROUND US 
       WAKE UP WAKE UP WAKE UP
       SO MANY DEAD PEOPLE
       WAKE UP WAKE UP WAKE UP
       I WANT THIS TO STOP 
       WAKE UP WAKE WAKE UP 
       BUT THIS IS WAR 

Chorus: im falling down 
        falling down 
        and noone is helping me
        i need you here 
        i need your hand 
        i need someone to protect me  (4x's) 

Bridge: JUST LOOK AROUND JUST LOOK AROUND AROUND YOU
        JUST LOOK AROUND JUST LOOK AROUND AROUND YOU
        JUST LOOK AROUND JUST LOOK AROUND AROUND YOU
        JUST LOOK AROUND ITS A ***ED UP WORLD!

Chorus: im falling down 
        falling down 
        and noone is helping me
        i need you here 
        i need your hand 
        i need someone to protect me  (4x's)
            
Submit corrections

comments powered by Disqus
↑ Back to top | Nemesis Of Dissonance Tabs for Look Around. Lyrics for acoustic guitar and electric guitar. Tablatures and chords are parodies/interpretations of the original songs. You may use it for private study, scholarship, research or language learning purposes only