» » »

Nemesis Of Dissonance, I Could Tabs (ver.1)

Artists:  A B C D E F G H I J K L M N O P Q R S T U V W X Y Z # 

I Could Tabs (ver.1)

Nemesis Of Dissonance Tabs
Rating:
0/5 (0 votes)
I Could lessons Tabs too difficult? Try these video lessons and learn fast
                play it in drop D like most of our songs

~~~~~ = let it ring

(Intro: play 2 times)
|----------------------------------------------|
|-5------------7~~~~~~~~7------------5~~~~~~~~-|
|---3~~~~~~~~3------------5~~~~~~~~5-----------| 
|----------------------------------------------|
|----------------------------------------------|
|----------------------------------------------| 

(Chorus: play 4 times)
|------------------------------------------------------------------|
|------------------------------------------------------------------|
|------------------------------------------------------------------|
|-7-7-7-7-7-7-7-7-7-7-7-7-7-7-7-7-7--5-5-5-5-5-5-5--3-3-3-3--8-8-8-| 
|-7-7-7-7-7-7-7-7-7-7-7-7-7-7-7-7-7--5-5-5-5-5-5-5--3-3-3-3--8-8-8-|
|-7-7-7-7-7-7-7-7-7-7-7-7-7-7-7-7-7--5-5-5-5-5-5-5--3-3-3-3--8-8-8-| 

(intro verse: play 2 times)
|--------------------------------------------------|
|--------------------------------------------------|
|--------------------------------------------------|
|-2-2---2-2---2-2---2-2---2--3---2-2---2-2---2-2---|
|-2-2---2-2---2-2---2-2---2--3---2-2---2-2---2-2---|
|-2-2---2-2---2-2---2-2---2--3---2-2---2-2---2-2---|   

(verse: play 8 times)
|------------------------------------------------------------------------|
|------------------------------------------------------------------------|
|---------------------------------------------------------9999999777777--|
|-2-2---2-2---2-2---2-2---2-2-3-3-2-2---2-2---2-2---2-2---xxxxxxxxxxxxx--|
|-2-2---2-2---2-2---2-2---2-2-3-3-2-2---2-2---2-2---2-2---7777777555555--|
|-2-2---2-2---2-2---2-2---2-2-3-3-2-2---2-2---2-2---2-2------------------|  

(chorus: play 4 times)
|------------------------------------------------------------------|
|------------------------------------------------------------------|
|------------------------------------------------------------------|
|-7-7-7-7-7-7-7-7-7-7-7-7-7-7-7-7-7--5-5-5-5-5-5-5--3-3-3-3--8-8-8-| 
|-7-7-7-7-7-7-7-7-7-7-7-7-7-7-7-7-7--5-5-5-5-5-5-5--3-3-3-3--8-8-8-|
|-7-7-7-7-7-7-7-7-7-7-7-7-7-7-7-7-7--5-5-5-5-5-5-5--3-3-3-3--8-8-8-| 

(verse 2: play 8 times)
|------------------------------------------------------------------------|
|------------------------------------------------------------------------|
|---------------------------------------------------------9999999777777--|
|-2-2---2-2---2-2---2-2---2-2-3-3-2-2---2-2---2-2---2-2---xxxxxxxxxxxxx--|
|-2-2---2-2---2-2---2-2---2-2-3-3-2-2---2-2---2-2---2-2---7777777555555--|
|-2-2---2-2---2-2---2-2---2-2-3-3-2-2---2-2---2-2---2-2------------------|  

(chorus: play 8 times)
|------------------------------------------------------------------|
|------------------------------------------------------------------|
|------------------------------------------------------------------|
|-7-7-7-7-7-7-7-7-7-7-7-7-7-7-7-7-7--5-5-5-5-5-5-5--3-3-3-3--8-8-8-| 
|-7-7-7-7-7-7-7-7-7-7-7-7-7-7-7-7-7--5-5-5-5-5-5-5--3-3-3-3--8-8-8-|
|-7-7-7-7-7-7-7-7-7-7-7-7-7-7-7-7-7--5-5-5-5-5-5-5--3-3-3-3--8-8-8-| 

(bridge: play 8 times)
|-------------------------------|
|-------------------------------|
|-------------------------------|
|-3-4-2---3-4-2---3-4-2//3-4-2--|
|-3-4-2---3-4-2---3-4-2//3-4-2--|
|-3-4-2---3-4-2---3-4-2//3-4-2--| 

(Chorus: play 8 times)
|------------------------------------------------------------------|
|------------------------------------------------------------------|
|------------------------------------------------------------------|
|-7-7-7-7-7-7-7-7-7-7-7-7-7-7-7-7-7--5-5-5-5-5-5-5--3-3-3-3--8-8-8-| 
|-7-7-7-7-7-7-7-7-7-7-7-7-7-7-7-7-7--5-5-5-5-5-5-5--3-3-3-3--8-8-8-|
|-7-7-7-7-7-7-7-7-7-7-7-7-7-7-7-7-7--5-5-5-5-5-5-5--3-3-3-3--8-8-8-|  

(outro verse: 1 times)
|-----------------------------------------------------------|
|-----------------------------------------------------------|
|-----------------------------------------------------------|
|-2-2---2-2---2-2---2-2---2--3---2-2---2-2---2-2~~~~~~~~~~~~|
|-2-2---2-2---2-2---2-2---2--3---2-2---2-2---2-2~~~~~~~~~~~~|
|-2-2---2-2---2-2---2-2---2--3---2-2---2-2---2-2~~~~~~~~~~~~|   


Lyrics: i could

intro: I COULD!!!


Verse: i could hide my destiny and bring it back
       i could bust your ears and make you bleed  
       i could conquer a planet and blow it up  
       i could stay in this body and live forever  
       i could keep on dreaming and never stop!  
       i could fly away and never land  
       i could kill and bring life back again 
       i could end this world and be teh only one living 


Chorus: Who knowz if that will ever happen 
        feeling what i feel it must be hate 
        drowning myself away 
        saying this stuff i will never pay! 


Verse: i could kill my enemies and burry them 
       i could feel no mercy on raping her
       i could steal his heart and make him eat it 
       i could bring you down and you wont even see it 
       i could be a mother ***er and put you into tears
       i could finish all the angels in the sky  
       i could be a ***ing god but that will never happen 
       i could chase you kill you *** you and you will never see  


Chorus: Who knowz if that will ever happen 
        feeling what i feel it must be hate 
        drowning myself away 
        saying this stuff i will never pay!  


Bridge: am i real 
        are you real 
        is this world real (8x's) 


Chorus: Who knowz if that will ever happen 
        feeling what i feel it must be hate 
        drowning myself away 
        saying this stuff i will never pay!
            

comments powered by Disqus
↑ Back to top | Nemesis Of Dissonance Tabs for I Could. Lyrics for acoustic guitar and electric guitar. Tablatures and chords are parodies/interpretations of the original songs. You may use it for private study, scholarship, research or language learning purposes only