» » »

Nemesis Of Dissonance, Help Me Tabs (ver.1)

Artists:  A B C D E F G H I J K L M N O P Q R S T U V W X Y Z # 

Help Me Tabs (ver.1)

Nemesis Of Dissonance Tabs
 Rating:
4/5 (4 votes)
Help Me lessons Tabs too difficult? Try these video lessons and learn fast
                drop D

. = palm muted 
/ = slide

(intro: play it 4 times with distortion)
|-----------------------------------------------------------------------------------|
|-----------------------------------------------------------------------------------|
|-13-12-0-13-12-0-15--13-12-0-13-12-0-15--13-12-0-13-12-0-15--13-12-0-13-12-0-15-15-|
|-----------------------------------------------------------------------------------|
|-----------------------------------------------------------------------------------|
|-----------------------------------------------------------------------------------| 


(pre-chorus: play 2 times with distortion)
|--------------------------------------------------------------------|
|--------------------------------------------------------------------|
|--------------------------------------------------------------------|
|-8-7-0-8-7-0-10--8-7-0-8-7-0-10--8-7-0-8-7-0-10--8-7-0-8-7-0-10-10--|
|-8-7-0-8-7-0-10--8-7-0-8-7-0-10--8-7-0-8-7-0-10--8-7-0-8-7-0-10-10--|
|-8-7-0-8-7-0-10--8-7-0-8-7-0-10--8-7-0-8-7-0-10--8-7-0-8-7-0-10-10--| 


(verse: play it 8 times with distortion)
|-----------------------------------------------------------------------------------|
|-----------------------------------------------------------------------------------|
|-13-12-0-13-12-0-15--13-12-0-13-12-0-15--13-12-0-13-12-0-15--13-12-0-13-12-0-15-15-|
|-----------------------------------------------------------------------------------|
|-----------------------------------------------------------------------------------|
|-----------------------------------------------------------------------------------| 


(pre-chorus: play it 2 times with distortion)
|--------------------------------------------------------------------|
|--------------------------------------------------------------------|
|--------------------------------------------------------------------|
|-8-7-0-8-7-0-10--8-7-0-8-7-0-10--8-7-0-8-7-0-10--8-7-0-8-7-0-10-10--|
|-8-7-0-8-7-0-10--8-7-0-8-7-0-10--8-7-0-8-7-0-10--8-7-0-8-7-0-10-10--|
|-8-7-0-8-7-0-10--8-7-0-8-7-0-10--8-7-0-8-7-0-10--8-7-0-8-7-0-10-10--| 


(chorus: play it 4 times with distortion)
|--------------------------------------------------------------|
|--------------------------------------------------------------|
|-----------------------------------------7777777777-9999-5555-|
|-8-8-8-8-8-8-8-8-8-8-3-3-3-3-3-3-3-3-3-3-xxxxxxxxxx-xxxx-xxxx-|
|-8-8-8-8-8-8-8-8-8-8-3-3-3-3-3-3-3-3-3-3-5555555555-7777-3333-|
|-8-8-8-8-8-8-8-8-8-8-3-3-3-3-3-3-3-3-3-3----------------------| 

(pre-chorus: play it 2 times with distortion)
|--------------------------------------------------------------------|
|--------------------------------------------------------------------|
|--------------------------------------------------------------------|
|-8-7-0-8-7-0-10--8-7-0-8-7-0-10--8-7-0-8-7-0-10--8-7-0-8-7-0-10-10--|
|-8-7-0-8-7-0-10--8-7-0-8-7-0-10--8-7-0-8-7-0-10--8-7-0-8-7-0-10-10--|
|-8-7-0-8-7-0-10--8-7-0-8-7-0-10--8-7-0-8-7-0-10--8-7-0-8-7-0-10-10--| 

(Verse 2: play it 8 times with distortion)
|-----------------------------------------------------------------------------------|
|-----------------------------------------------------------------------------------|
|-13-12-0-13-12-0-15--13-12-0-13-12-0-15--13-12-0-13-12-0-15--13-12-0-13-12-0-15-15-|
|-----------------------------------------------------------------------------------|
|-----------------------------------------------------------------------------------|
|-----------------------------------------------------------------------------------|  


(pre-chorus: play 2 times with distortion)
|--------------------------------------------------------------------|
|--------------------------------------------------------------------|
|--------------------------------------------------------------------|
|-8-7-0-8-7-0-10--8-7-0-8-7-0-10--8-7-0-8-7-0-10--8-7-0-8-7-0-10-10--|
|-8-7-0-8-7-0-10--8-7-0-8-7-0-10--8-7-0-8-7-0-10--8-7-0-8-7-0-10-10--|
|-8-7-0-8-7-0-10--8-7-0-8-7-0-10--8-7-0-8-7-0-10--8-7-0-8-7-0-10-10--| 


(chorus: play it 4 times with distortion)
|--------------------------------------------------------------|
|--------------------------------------------------------------|
|-----------------------------------------7777777777-9999-5555-|
|-8-8-8-8-8-8-8-8-8-8-3-3-3-3-3-3-3-3-3-3-xxxxxxxxxx-xxxx-xxxx-|
|-8-8-8-8-8-8-8-8-8-8-3-3-3-3-3-3-3-3-3-3-5555555555-7777-3333-|
|-8-8-8-8-8-8-8-8-8-8-3-3-3-3-3-3-3-3-3-3----------------------|  


(bridge 1: play it 4 times with distortion)
|---------------------------------------------------|
|---------------------------------------------------|
|-7777777777-5555555555-777777777/99/77/99/77/9/7/9-|
|-5555555555-3333333333-xxxxxxxxx/xx/xx/xx/xx/x/x/x-|
|-5555555555-3333333333-555555555/77/55/77/55/7/5/7-|
|-5555555555-3333333333-----------------------------|


(pre-chorus: play 2 times with distortion)
|--------------------------------------------------------------------|
|--------------------------------------------------------------------|
|--------------------------------------------------------------------|
|-8-7-0-8-7-0-10--8-7-0-8-7-0-10--8-7-0-8-7-0-10--8-7-0-8-7-0-10-10--|
|-8-7-0-8-7-0-10--8-7-0-8-7-0-10--8-7-0-8-7-0-10--8-7-0-8-7-0-10-10--|
|-8-7-0-8-7-0-10--8-7-0-8-7-0-10--8-7-0-8-7-0-10--8-7-0-8-7-0-10-10--|  


(verse 3: play 4 times with distortion)
|-----------------------------------------------------------------------------------|
|-----------------------------------------------------------------------------------|
|-13-12-0-13-12-0-15--13-12-0-13-12-0-15--13-12-0-13-12-0-15--13-12-0-13-12-0-15-15-|
|-----------------------------------------------------------------------------------|
|-----------------------------------------------------------------------------------| 
|-----------------------------------------------------------------------------------|  


(pre-chorus: play 2 times with distortion)
|--------------------------------------------------------------------|
|--------------------------------------------------------------------|
|--------------------------------------------------------------------|
|-8-7-0-8-7-0-10--8-7-0-8-7-0-10--8-7-0-8-7-0-10--8-7-0-8-7-0-10-10--|
|-8-7-0-8-7-0-10--8-7-0-8-7-0-10--8-7-0-8-7-0-10--8-7-0-8-7-0-10-10--|
|-8-7-0-8-7-0-10--8-7-0-8-7-0-10--8-7-0-8-7-0-10--8-7-0-8-7-0-10-10--|   


(chorus: play 4 times with distortion)
|--------------------------------------------------------------|
|--------------------------------------------------------------|
|-----------------------------------------7777777777-9999-5555-|
|-8-8-8-8-8-8-8-8-8-8-3-3-3-3-3-3-3-3-3-3-xxxxxxxxxx-xxxx-xxxx-|
|-8-8-8-8-8-8-8-8-8-8-3-3-3-3-3-3-3-3-3-3-5555555555-7777-3333-|
|-8-8-8-8-8-8-8-8-8-8-3-3-3-3-3-3-3-3-3-3----------------------|  


(bridge 2:         |
play this 3 times) |  (play this after the 3 times once)
|------------------|-------------------|
|------------------|-------------------|
|-----------/77777-|------------/99999-|
|-1-1111-1-0/xxxxx-|--1-1111-1-0/xxxxx-|
|-1-1111-1-0/55555-|--1-1111-1-0/77777-|
|-1-1111-1-0-------|--1-1111-1-0-------|
pm  ....           |
                   |

(pre-chorus: play it 3 times) 
|--------------------------------------------------------------------|
|--------------------------------------------------------------------|
|--------------------------------------------------------------------|
|-8-7-0-8-7-0-10--8-7-0-8-7-0-10--8-7-0-8-7-0-10--8-7-0-8-7-0-10-10--|
|-8-7-0-8-7-0-10--8-7-0-8-7-0-10--8-7-0-8-7-0-10--8-7-0-8-7-0-10-10--|
|-8-7-0-8-7-0-10--8-7-0-8-7-0-10--8-7-0-8-7-0-10--8-7-0-8-7-0-10-10--| 

   
(pre-chorus: play this one last time after the 3 times) 
|-----------------------------------------------------------------|
|-----------------------------------------------------------------|
|-----------------------------------------------------------------|
|-8-7-0-8-7-0-10--8-7-0-8-7-0-10--8-7-0-8-7-0-10--8-7-0-8-7-0-10--|
|-8-7-0-8-7-0-10--8-7-0-8-7-0-10--8-7-0-8-7-0-10--8-7-0-8-7-0-10--|
|-8-7-0-8-7-0-10--8-7-0-8-7-0-10--8-7-0-8-7-0-10--8-7-0-8-7-0-10--|
            
Submit corrections

comments powered by Disqus
↑ Back to top | Nemesis Of Dissonance Tabs for Help Me. Lyrics for acoustic guitar and electric guitar. Tablatures and chords are parodies/interpretations of the original songs. You may use it for private study, scholarship, research or language learning purposes only