» » »

Nemesis Of Dissonance, A Milion Pieces Tabs (ver.1)

Artists:  A B C D E F G H I J K L M N O P Q R S T U V W X Y Z # 

A Milion Pieces Tabs (ver.1)

Nemesis Of Dissonance Tabs
 Rating:
4/5 (4 votes)
A Milion Pieces lessons Tabs too difficult? Try these video lessons and learn fast
                play in drop D. this is really fun to play when u get it right and plus its easy!
this song is made up by us and N.o.D is our band hope u guys liek it!


|-------------------------------------------------------------------|
|-------------------------------------------------------------------|
|-------------------------------------------------------------------|  [2times]
|-------7----------------9----------------5----------------7--------| [no distortion]
|----5----------------7----------------3----------------5-----------|
|-5--------5~~~~---7--------7~~~~---3--------3~~~~---5--------5~~~~-|  

|----------------------------------------------------------------------------|
|----------------------------------------------------------------------------|
|----------------------------------------------------------------------------|  [2 times]
|-7-77777-7-77777-7--9-99999-9-99999-9--5-55555-5-55555-5--7-77777-7-77777-7-| [no distortion]
|-5-55555-5-55555-5--7-77777-7-77777-7--3-33333-3-33333-3--5-55555-5-55555-5-|
|-5-55555-5-55555-5--7-77777-7-77777-7--3-33333-3-33333-3--5-55555-5-55555-5-| 

|----------------------------------------------------------------------------|
|----------------------------------------------------------------------------|
|----------------------------------------------------------------------------|  [4 times]
|-------7------------------9------------------5------------------7-----------| [no distortion]
|----5------------------7------------------3------------------5--------------|
|-5--------5--5-5-5--7--------7--7-7-7--3--------3--3-3-3--5--------5--5-5-5-|

|----------------------------------------------------------------------------|
|----------------------------------------------------------------------------|
|----------------------------------------------------------------------------|     [2 times]
|-7-77777-7-77777-7--9-99999-9-99999-9--5-55555-5-55555-5--7-77777-7-77777-7-| [with distortion]
|-5-55555-5-55555-5--7-77777-7-77777-7--3-33333-3-33333-3--5-55555-5-55555-5-|
|-5-55555-5-55555-5--7-77777-7-77777-7--3-33333-3-33333-3--5-55555-5-55555-5-|  

|----------------------------------------------------------------------------|
|----------------------------------------------------------------------------|
|----------------------------------------------------------------------------|    [4 times]
|-------7------------------9------------------5------------------7-----------| [no distortion]
|----5------------------7------------------3------------------5--------------|
|-5--------5--5-5-5--7--------7--7-7-7--3--------3--3-3-3--5--------5--5-5-5-| 

|----------------------------------------------------------------------------|
|----------------------------------------------------------------------------|
|----------------------------------------------------------------------------|     [4 times]
|-7-77777-7-77777-7--9-99999-9-99999-9--5-55555-5-55555-5--7-77777-7-77777-7-| [with distortion]
|-5-55555-5-55555-5--7-77777-7-77777-7--3-33333-3-33333-3--5-55555-5-55555-5-|
|-5-55555-5-55555-5--7-77777-7-77777-7--3-33333-3-33333-3--5-55555-5-55555-5-|  

|---------------------------------------------------------------------|
|---------------------------------------------------------------------|
|---------------------------------------------------------------------|    [1 time] 
|-7~~77--7~~7--77--9~~99--9~~9--99--5~~55--5~~5--55--3~~33--3~~3--33--| [no distortion]
|-5~~55--5~~5--55--7~~77--7~~7--77--3~~33--3~~3--33--5~~55--5~~5--55--|
|-5~~55--5~~5--55--7~~77--7~~7--77--3~~33--3~~3--33--5~~55--5~~5--55--|

|--------------------------------------------------------------------------|
|--------------------------------------------------------------------------|
|--------------------------------------------------------------------------|    [1 times]
|-7-77777-7-77777-7--9-99999-9-99999-9--5-55555-5-55555-5--7-7-7-7-7-7-7-7-| [no distortion]
|-5-55555-5-55555-5--7-77777-7-77777-7--3-33333-3-33333-3--5-5-5-5-5-5-5-5-|
|-5-55555-5-55555-5--7-77777-7-77777-7--3-33333-3-33333-3--5-5-5-5-5-5-5-5-| 

|----------------------------------------------------------------------------|
|----------------------------------------------------------------------------|
|----------------------------------------------------------------------------|     [4 times]
|-7-77777-7-77777-7--9-99999-9-99999-9--5-55555-5-55555-5--7-77777-7-77777-7-| [with distortion]
|-5-55555-5-55555-5--7-77777-7-77777-7--3-33333-3-33333-3--5-55555-5-55555-5-|
|-5-55555-5-55555-5--7-77777-7-77777-7--3-33333-3-33333-3--5-55555-5-55555-5-|   

|----------------------------------------------------------------|
|----------------------------------------------------------------|
|----------------------------------------------------------------|    [1 time]   
|-------3----3----------9----9----------5----5----------7----7---| [no distortion]
|-----5----5---5------7----7---7------3----3---3------5----5---5-|
|-5-5-------------7-7-------------3-3-------------5-5------------|
 
|------------------------------------------------------------|
|------------------------------------------------------------|
|------------------------------------------------------------|    [1 time]   
|-------3----3----------9----9----------5----5----------7~~~-| [no distortion]
|-----5----5---5------7----7---7------3----3---3------5------|
|-5-5-------------7-7-------------3-3-------------5-5--------|
            
Submit corrections

comments powered by Disqus
↑ Back to top | Nemesis Of Dissonance Tabs for A Milion Pieces. Lyrics for acoustic guitar and electric guitar. Tablatures and chords are parodies/interpretations of the original songs. You may use it for private study, scholarship, research or language learning purposes only