>
 >
Against Someone

Against Someone Guitar Tabs

Nemesis Of Dissonance - Against Someone chords, tabs, tablatures, lyrics

Guitar lessons | Add/correct | Request | Top 50 tabs Artists:  A B C D E F G H I J K L M N O P Q R S T U V W X Y Z 0-9

Against Someone Guitar Tabs – Nemesis Of Dissonance

CD, Sheet music, Poster

Do you like Against Someone? Share with your friends now
Tabs
Drop D

~~ = let it ring 
.. = palm muted

(Intro: play 4 times with distortion)
(both guitars)
|------------------|
|------------------|
|------------------|
|-0-3-2~~~~~~~~~~~-|
|-0-3-2~~~~~~~~~~~-|
|-0-3-2~~~~~~~~~~~-| 

(Verse: play 4 times with distortion)
(both guitars)
|--------------------------|
|--------------------------|
|--------------------------|
|-2-0-0-2-0-0-2-0--2-2-3~~-|
|-2-0-0-2-0-0-2-0--2-2-3~~-|
|-2-0-0-2-0-0-2-0--2-2-3~~-| 
    . .   . .   .    . .

(after the 4 times you play this right away)
(both guitars)
|--------------------------|
|--------------------------|
|--------------------------|
|-2-0~~~2-0~~~2-0~~~2--2-3-|
|-2-0~~~2-0~~~2-0~~~2--2-3-|
|-2-0~~~2-0~~~2-0~~~2--2-3-| 

(Chorus: play 2 times with distortion)
(both guitars)
|------------------------------------------------------------|
|------------------------------------------------------------|
|------------------------------------------------------------|
|-7-7-7-7-7-7//3-3-3-3-3-3-3-3//7-7-7-7-7-7//3-3-3-3-3-3-3-3-|
|-7-7-7-7-7-7//3-3-3-3-3-3-3-3//7-7-7-7-7-7//3-3-3-3-3-3-3-3-|
|-7-7-7-7-7-7//3-3-3-3-3-3-3-3//7-7-7-7-7-7//3-3-3-3-3-3-3-3-| 

(both guitars..but 2nd guitar plays the  --7-8-3-)
|-------------------------------------------------------------------|
|-------------------------------------------------------------------|
|-------------------------------------------------------------------| 
|-2-2-2-2-2-2//5-5-5-5-5-5-5-5//2-2-2-2-2-2//5-5-5-5-5-5-5-5--------|
|-2-2-2-2-2-2//5-5-5-5-5-5-5-5//2-2-2-2-2-2//5-5-5-5-5-5-5-5--7-8-3-|
|-2-2-2-2-2-2//5-5-5-5-5-5-5-5//2-2-2-2-2-2//5-5-5-5-5-5-5-5--------|

(Verse: play 8 times with distortion)
(both guitars)
|-------------------------|
|-------------------------|
|-------------------------|
|-2-0-0-2-0-0-2-0--2-2-3~~|
|-2-0-0-2-0-0-2-0--2-2-3~~|
|-2-0-0-2-0-0-2-0--2-2-3~~| 
    . .   . .   .    . . 

(after the 4 times you play this right away)
(both guitars)
|--------------------------|
|--------------------------|
|--------------------------|
|-2-0~~~2-0~~~2-0~~~2--2-3-|
|-2-0~~~2-0~~~2-0~~~2--2-3-|
|-2-0~~~2-0~~~2-0~~~2--2-3-| 

(Chorus: play 4 times with distortion)
(both guitars)
|------------------------------------------------------------|
|------------------------------------------------------------|
|------------------------------------------------------------|
|-7-7-7-7-7-7//3-3-3-3-3-3-3-3//7-7-7-7-7-7//3-3-3-3-3-3-3-3-|
|-7-7-7-7-7-7//3-3-3-3-3-3-3-3//7-7-7-7-7-7//3-3-3-3-3-3-3-3-|
|-7-7-7-7-7-7//3-3-3-3-3-3-3-3//7-7-7-7-7-7//3-3-3-3-3-3-3-3-| 

(both guitars..but 2nd guitar plays the  --7-8-3-)
|-------------------------------------------------------------------|
|-------------------------------------------------------------------|
|-------------------------------------------------------------------| 
|-2-2-2-2-2-2//5-5-5-5-5-5-5-5//2-2-2-2-2-2//5-5-5-5-5-5-5-5--------|
|-2-2-2-2-2-2//5-5-5-5-5-5-5-5//2-2-2-2-2-2//5-5-5-5-5-5-5-5--7-8-3-|
|-2-2-2-2-2-2//5-5-5-5-5-5-5-5//2-2-2-2-2-2//5-5-5-5-5-5-5-5--------|

(Pre-bridge: play this 2 times with distortion)
(1st guitar)
|-------------------------------------------------------------------------------------------------------------|
|-------------------------------------------------------------------------------------------------------------|
|-12-12-12-12-12-12-9-9-9-9-9-9-12-12-12-12-12-12-9-9-9-9-9-9-5-5-5-5-5-5-7-7-7-7-7-7-5-5-5-5-5-5-7-7-7-7-7-7-|
|--x--x--x--x--x--x-x-x-x-x-x-x--x--x--x--x--x--x-x-x-x-x-x-x-x-x-x-x-x-x-x-x-x-x-x-x-x-x-x-x-x-x-x-x-x-x-x-x-|
|-10-10-10-10-10-10-7-7-7-7-7-7-10-10-10-10-10-10-7-7-7-7-7-7-3-3-3-3-3-3-5-5-5-5-5-5-3-3-3-3-3-3-5-5-5-5-5-5-|
|-------------------------------------------------------------------------------------------------------------|

(Bridge: play 8 times with distortion)
(both guitars)
|-----------------------------------------------------------------------------------------------------------------------------------------|
|-----------------------------------------------------------------------------------------------------------------------------------------|
|-7~~~~~~~~~~~~~~~-5~~~~~~~~~~~~~~~-5~~~~~~~~~~~~~~~-7~~~~~~~~~~~~~~~-7~~~~~~~~~~~~~~~-5~~~~~~~~~~~~~~~-5~~~~~~~~~~~~~~~-7~~~~~~~~~~~~~~~-|
|-5~~~~~~~~~~~~~~~-3~~~~~~~~~~~~~~~-3~~~~~~~~~~~~~~~-5~~~~~~~~~~~~~~~-5~~~~~~~~~~~~~~~-3~~~~~~~~~~~~~~~-3~~~~~~~~~~~~~~~-5~~~~~~~~~~~~~~~-|
|-5~~~~~~~~~~~~~~~-3~~~~~~~~~~~~~~~-3~~~~~~~~~~~~~~~-5~~~~~~~~~~~~~~~-5~~~~~~~~~~~~~~~-3~~~~~~~~~~~~~~~-3~~~~~~~~~~~~~~~-5~~~~~~~~~~~~~~~-|
|-5~~~~~~~~~~~~~~~-3~~~~~~~~~~~~~~~-3~~~~~~~~~~~~~~~-5~~~~~~~~~~~~~~~-5~~~~~~~~~~~~~~~-3~~~~~~~~~~~~~~~-3~~~~~~~~~~~~~~~-5~~~~~~~~~~~~~~~-| 

(Chorus: play this 4 times with distortion)
(both guitars)
|------------------------------------------------------------|
|------------------------------------------------------------|
|------------------------------------------------------------|
|-7-7-7-7-7-7//3-3-3-3-3-3-3-3//7-7-7-7-7-7//3-3-3-3-3-3-3-3-|
|-7-7-7-7-7-7//3-3-3-3-3-3-3-3//7-7-7-7-7-7//3-3-3-3-3-3-3-3-|
|-7-7-7-7-7-7//3-3-3-3-3-3-3-3//7-7-7-7-7-7//3-3-3-3-3-3-3-3-| 

(both guitars..but 2nd guitar plays the  --7-8-3-)
|-------------------------------------------------------------------|
|-------------------------------------------------------------------|
|-------------------------------------------------------------------| 
|-2-2-2-2-2-2//5-5-5-5-5-5-5-5//2-2-2-2-2-2//5-5-5-5-5-5-5-5--------|
|-2-2-2-2-2-2//5-5-5-5-5-5-5-5//2-2-2-2-2-2//5-5-5-5-5-5-5-5--7-8-3-|
|-2-2-2-2-2-2//5-5-5-5-5-5-5-5//2-2-2-2-2-2//5-5-5-5-5-5-5-5--------|


Lyrics: Against someone


Vocal Intro: i cannot give up my life
             and do the things that you told me
             the world will collide 
             and you will be all living lonely

Verse: i cannot take this anymore
       everybody is my enemie and not care at all
       i feel like ending all this revolution
       no wonder why i feel that i got some conclusion
       im a ***ign grown up who the hell are you 
       its rules for everything and none for you 
       what you trying to do i can control you
       so you better back off before i kill you
       

Chorus: i live my life
        all alone 
        i dont need anything
        from you or anyone 

Verse 2: As i told you i will not give up 
         i will not let you kill me and give me your blood  
         you dont deserve anything from god 
         cause all you ever did was left behind 
         you hit me one more time and i will blow you up 
         i will cut your throat and *** all you ever got 
         you will never get all you ever want it 
         cause im here to stop you from ***ing all the world 
         
Chorus: i live my life
        all alone 
        i dont need anything
        from you or anyone  

Bridge: you will never give me orders 
        you will never be the boss
        you will never reach the top 
        cause i will be there stopping you 

Chorus: i live my life
        all alone 
        i dont need anything
        from you or anyone





Comments


Popular Nemesis Of Dissonance tabs & chords
A Milion Pieces Tabs
Help Me Tabs
I Could Tabs
Look Around Tabs
Paranoia Or Revalution Tabs
Run Tabs


Song lyrics



↑ Back to top | Tablatures and chords are parodies/interpretations of the original songs. You may use it for private study, scholarship, research or language learning purposes only
© 2014 AZChords.com Contact us | Privacy policy | DMCA | Add/correct tabs | Request tabs | Top 50 tabs