>
 >
All Good Things (Come To An End)

All Good Things (Come To An End) Guitar Tabs

Nelly Furtado - All Good Things (Come To An End) chords, tabs, tablatures, lyrics

Guitar lessons | Add/correct | Request | Top 50 tabs Artists:  A B C D E F G H I J K L M N O P Q R S T U V W X Y Z 0-9

All Good Things (Come To An End) Guitar Tabs – Nelly Furtado

CD, Sheet music, Poster

Do you like All Good Things (Come To An End)? Share with your friends now
Bass TabsChordsChords v2Chords v3Tabs
-------------------------------------------------------------------------------
             All Good Things (Come To An End)  - Nelly Furtado
-------------------------------------------------------------------------------

Tuning:Standard




Bonjour, ceci est la tablature complete de la chanson de All Good Things Come To 
An End: J'adore la melodie :)

Amusez-vous bien ! ^^

e|-0----3---0-0----------------0---3---0-0----------------0----3---0-0---------------------|
B|-----3----------3-3--1-----3----3----------3-3--1-----3----3----------3-3--1------1-3-3--|
G|-----------------------2--------------------------2--------------------------2-----------|
D|-----------------------------------------------------------------------------------------|
A|-----------------------------------------------------------------------------------------|
E|-----------------------------------------------------------------------------------------|

e|-0---------------0-----------3---0-0-0-1-0------------0-------3-3-5------------0-1-0---0-|
B|----3-1-0--1-1------3-1-0--1----------------3-1-3-1-1---1-0-1-------3-3-3--3-3-------3---|
G|-----------------------------------------------------------------------------------------|
D|-----------------------------------------------------------------------------------------|
A|-----------------------------------------------------------------------------------------|
E|-----------------------------------------------------------------------------------------|

e|-0-3------0-3---------3-5--5-5-5-5---3-0---0-3------0-3---------3-5--5-5-5-5---3--------------0-|
B|-----0-1------1-0---3--------------------------0-1------1-0---3------------------3-3-3--1--1----|
G|------------------------------------------------------------------------------------------------|
D|------------------------------------------------------------------------------------------------|
A|------------------------------------------------------------------------------------------------|
E|------------------------------------------------------------------------------------------------|
|
e|-----------------------------------------0---------------1-0----------------0---|
B|-3-1-3-1---||---1-0---3-1-3-----3-----3----3-1-3--1-1-1-------3-1-3-1---------1-|
G|-----------------------------------------------------------------------2--2-----|
D|--------------------------------------------------------------------------------|
A|--------------------------------------------------------------------------------|
E|--------------------------------------------------------------------------------|

e|---------------0-------------0------------------0-0----0-3------0-3---------3-5--5-5-5--5-3-0-|
B|-3-1-1-3-1-1-1---3-1-3-3-3-3---3-1-3-1-1-1-1--3------------0-1------1-0---3-------------------|
G|----------------------------------------------------------------------------------------------|
D|----------------------------------------------------------------------------------------------|
A|----------------------------------------------------------------------------------------------|
E|----------------------------------------------------------------------------------------------|

                                         Am        C         G
e|-0-3------0-3---------3-5--5-5-5--5-3--0--5-5-3--0--5-5-3--3------3-5--5-5-5-5-|
B|-----0-1------1-0---3------------------1---------1---------0----3--------------|
G|---------------------------------------2---------0---------0-------------------|
D|---------------------------------------2---------2---------0-------------------|
A|---------------------------------------0---------3---------1-------------------|
E|---------------------------------------x---------x---------2-------------------|

e|-0-3-5--5-5-5--3--0-0-0-3-0--------0-3-0-------0-0-0--3-5--5-5-5--3--0-0-0-3-0-------0-3-0------|
B|----------------------------1-0-0--------1-------------------------------------1-0-0-------1----|
G|-------------------------------------------2-2-----------------------------------------------2-2|
D|------------------------------------------------------------------------------------------------|
A|------------------------------------------------------------------------------------------------|
E|------------------------------------------------------------------------------------------------|

e|-0-0-0-3-5---0-5-0-4-7-10-8-7-5------------7-8-7-8-7-8-7-8-7-8-7-8-7-8-7-5----|
B|-----------1--------------------8-6-5-----------------------------------------|
G|--------------------------------------7-5-------------------------------------|
D|------------------------------------------------------------------------------|
A|------------------------------------------------------------------------------|
E|------------------------------------------------------------------------------|

                                                                                         Am
e|-0-3------0-3---------3-5--5-5-5--5-3--0-----0-3------0-3---------3-5--5-5-5---8-7-5-3--0-|
B|-----0-1------1-0---3----------------------------0-1------1-0---3-----------------------1-|
G|----------------------------------------------------------------------------------------2-|
D|----------------------------------------------------------------------------------------2-|
A|----------------------------------------------------------------------------------------0-|
E|----------------------------------------------------------------------------------------X-|

            C           G
e|-8-7-5-3--0--8-7-5-3--3---3-5--5-5-5----8-7-5-3--0--8-7-5-3--0--8-7-5-3--3---3-5--5-5-5--8-7-5-3|
B|----------1-----------0-3------------------------1-----------1-----------0-3--------------------|
G|----------0-----------0--------------------------2-----------0-----------0----------------------|
D|----------2-----------0--------------------------2-----------2-----------0----------------------|
A|----------3-----------1--------------------------0-----------3-----------1----------------------|
E|----------x-----------2--------------------------x-----------x-----------2----------------------|

e|-0-3-5--5-5-5--3--0-0-0-3-0--------0-3-0-------0-0-0--3-5--5-5-5--3--0-0-0-3-0-------0-3-0------|
B|----------------------------1-0-0--------1-------------------------------------1-0-0-------1----|
G|-------------------------------------------2-2-----------------------------------------------2-2|
D|------------------------------------------------------------------------------------------------|
A|------------------------------------------------------------------------------------------------|
E|------------------------------------------------------------------------------------------------|

e|-0-0-0-3-5-----------------------------------------------------------------|
B|---------------------------------------------------------------------------|
G|---------------------------------------------------------------------------|
D|---------------------------------------------------------------------------|
A|---------------------------------------------------------------------------|
E|---------------------------------------------------------------------------|


************************************

|| pause

************************************





Comments


Popular Nelly Furtado tabs & chords
I’M Like A Bird 1 Chords
Manos Al Aire 3 Chords
Try 3 Chords
I’M Like A Bird Drum Tabs
I’M Like A Bird Tabs
Promiscuous Tabs
Say It Right Live Tabs
Legend Ukulele
Showtime Ukulele
What I Wanted Ukulele


Song lyrics



↑ Back to top | Tablatures and chords are parodies/interpretations of the original songs. You may use it for private study, scholarship, research or language learning purposes only
© 2014 AZChords.com Contact us | Privacy policy | DMCA | Add/correct tabs | Request tabs | Top 50 tabs