» » »

St Louie Bass tabs (ver.1)

Artists:  A B C D E F G H I J K L M N O P Q R S T U V W X Y Z # 

St Louie Bass tabs (ver.1)

Nelly
Rating:
0/5 (0 votes)

Hard to play? Try these video lessons and learn fast.
                (Intro)
here is the bass-line you asked for guy from what i can tell it just repeats and is 
dubbed out in spots

this is a whole step down because you need that low D octave...enjoy -dan

St louie whole step down
F|------9-----9-9-9-----------------9--------------------|
C|-------------------------------------------------------|
G|--7-x---7-x-------7-(7)-7----x-7-7-(7)---7-7-----------|
D|-0-------------------------0----------0----------------|

F|----9---9-----9-------------------9-9----------------|
C|-----------------9p5---------------------------------|
G|--7--(x)----7--7-----7---7-7-7-x-7-------------------|
D|-0--------0-------------0----0-----------------------|
            
Hard to play? Try these video lessons and learn fast. | Correct




comments powered by Disqus
↑ Back to top | Tablatures and chords are parodies/interpretations of the original songs. You may use it for private study, scholarship, research or language learning purposes only