» » »

Ride Wit Me Tabs (ver.1)

Artists:  A B C D E F G H I J K L M N O P Q R S T U V W X Y Z # 

Ride Wit Me Tabs (ver.1)

Nelly
Rating:
3/5 (12 votes)

Hard to play? Try these video lessons and learn fast.
                -------------------------------------------------------------------------------
-------------------------------------------------------------------------------

Tuning: standard

This song is an arrangement of both the acoustic and electric guitar parts as I play
 On the actual recorded version, the electric guitar plays the single note hammer riffs
muted, but it really sounds good on acoustic if you don't mute the G string notes.  The
riff to the song is as follows with 16th note muted strums between the actual chords
the first two muted strums are only played the first time:

          (Let Ring)                       (Let Ring)

e|--x-x----7--(7)-----7--7----x-x-x-x------2--(2)----2--2---x-x-x-x--|
B|--x-x----7-h^8------8--8----x-x-x-x------2-h^3-----3--3---x-x-x-x--|
G|--x-x----7--(7)-----7--7----x-x-x-x------2--(2)----2--2---x-x-x-x--|
D|--x-x----7-h^9------9--9----x-x-x-x------2-h^4-----4--4---x-x-x-x--|
A|--x-x----7--(7)-----7--7----x-x-x-x------2--(2)----2--2---x-x-x-x--|
E|-------------------------------------------------------------------|

    (Let Ring)                    (optional palm mute here)

e|--0--(0)-----0--0-----x-x-x-x-------------------------------|
B|--0-h^1------1--1-----x-x-x-x-------------------------------|
G|--0--(0)-----0--0-----x-x-x-x---7-h^9--9--9----7-h^9--9--9--|
D|--0-h^2------2--2-----x-x-x-x-------------------------------|
A|--0--(0)-----0--0-----x-x-x-x-------------------------------|
E|------------------------------------------------------------|


Occasionally this riff pops up:

       (Let Ring)                       (Let Ring)

e|------7--(7)-----7--7----x-x-x-x------2--(2)----2--2---x-x-x-x--|
B|------7-h^8------8--8----x-x-x-x------2-h^3-----3--3---x-x-x-x--|
G|------7--(7)-----7--7----x-x-x-x------2--(2)----2--2---x-x-x-x--|
D|------7-h^9------9--9----x-x-x-x------2-h^4-----4--4---x-x-x-x--|
A|------7--(7)-----7--7----x-x-x-x------2--(2)----2--2---x-x-x-x--|
E|----------------------------------------------------------------|

    (Let Ring)                               (optional palm mute here)

e|--0--(0)-----0--0-----x-x-x-x------------------------------|
B|--0-h^1------1--1-----x-x-x-x-------------------8--7-------|
G|--0--(0)-----0--0-----x-x-x-x----7-h^9--9--9----------9-7--|
D|--0-h^2------2--2-----x-x-x-x------------------------------|
A|--0--(0)-----0--0-----x-x-x-x------------------------------|
E|-----------------------------------------------------------|
            
Hard to play? Try these video lessons and learn fast. | Correct




comments powered by Disqus
↑ Back to top | Tablatures and chords are parodies/interpretations of the original songs. You may use it for private study, scholarship, research or language learning purposes only