» » »

Nelly, Number Tabs (ver.1)

Artists:  A B C D E F G H I J K L M N O P Q R S T U V W X Y Z # 

Number Tabs (ver.1)

Nelly Tabs
 Rating:
3.7/5 (6 votes)
Number lessons Tabs too difficult? Try these video lessons and learn fast
1
                "(1)
This is the main BASS line or Nelly #1. If u turn up te bass on ur
stereo listening to this song, this is the bass u wuld hear, but tabbed
for a Guitar. There are 2 differents ways i tabbed, this is the first
           ---- Roman
This is the first way u could play it.

Rythm 1
|--------------------------------------|
|--------------------------------------|
|--------------9-----------------------|
|---------------10---------------------|
|-----12-12-12----12--------15--1515---|
|------------------------------------15|

Rythm 2
|--------------------------------------|
|--------------------------------------|
|--------------9-----------------------|
|---------------10--------------10-----|
|-----12-12-12----12------12-----------|
|--------------------------------------|

This is the second way u could play it.

Rythm 1
//= slide then strike

|--------------------------------------|
|--------------------------------------|
|--------------------------------------|
|--------------------------------------|
|------------7-3---------3-33----------|
|------5-5-5-----5-------------3-------|

Rythm 2
|--------------------------------------|
|--------------------------------------|
|--------------------------------------|
|--------------------------------------|
|------------7-3-----------------------|
|------5-5-5-----5-------5-//8---------|

Thats pretty much the whole song in bass, if anyone wants to add
"            
Submit corrections

comments powered by Disqus
↑ Back to top | Nelly Tabs for Number. Lyrics for acoustic guitar and electric guitar. 1 Tablatures and chords are parodies/interpretations of the original songs. You may use it for private study, scholarship, research or language learning purposes only