» » »

Nekromantix, Who Killed The Cheerleader Tabs (ver.4)

Artists:  A B C D E F G H I J K L M N O P Q R S T U V W X Y Z # 

Who Killed The Cheerleader Tabs (ver.4)

Nekromantix Tabs
 Rating:
4.3/5 (6 votes)
Who Killed The Cheerleader lessons Tabs too difficult? Try these video lessons and learn fast
                INTRO 
E|------| 
B|------| 
G|-3--5-| 
D|-3--5-| 
A|-1--3-| 
E|------| 

E|-------------------------------------------------------------| 
B|-------------------------------------------------------------| 
G|---------------------------------------------8-8-8--10-10-10-| 
D|---1-3-3/5-3-1----1-3-3/5-3-1---1-3-3/5-3-5--8-8-8--10-10-10-| 
A|-3--------------1-------------1--------------6-6-6--8--8--8--| 
E|---------------------------------------------6-6-6--8--8--8--| 

E|-------------------------------------------------------------| 
B|-------------------------------------------------------------| 
G|---------------------------------------------8-8-8--10-10-10-| 
D|---1-3-3/5-3-1----1-3-3/5-3-1---1-3-3/5-3-5--8-8-8--10-10-10-| 
A|-3--------------1-------------1--------------6-6-6--8--8--8--| 
E|---------------------------------------------6-6-6--8--8--8--| 

CHORUS 
E|--------------------------------------------------------------| 
B|--------------------------------------------------------------| 
G|-5--------------8-------3-------------------------------------| 
D|-5--------------8-------3--------------------6-6-6---8-8-8----|x2
A|-3--------------6-------1--------------------6-4-4---8-8-8----| 
E|---------------------------------------------4-4-4---6-6-6----| 


E|----------------------------------------------------------------------| 
B|----------------------------------6---------------------------------6-| 
G|-5/7-7-7-5/7-7-7-5-----5--------5-----5/7-7-7-10-7-5-----5-------5----| 
D|-5/7-7-7-5/7-7-7-5-7-7----7-5-5-------5/7-7-7-7--7-5-7-7---7-5-5------| 
A|----------------------------------------------------------------------| 
E|----------------------------------------------------------------------| 

VERSE 
E|---------------------------------------------------| 
B|---------------------------------------------6-----| 
G|-5/7-7-7-7-7-7-7-5/7-7-7-7-7-7-7----5------5-------| 
D|----------------------------------7---7--7---------| 
A|---------------------------------------------------| 
E|---------------------------------------------------| 

E|-------------------| 
B|-----------------4-| 
G|-3------3------5---| 
D|-3-3-1--3-3--5-----| 
A|-5-3-1--5-3--------| 
E|---5-3----5--------| 

SOLO 
E|-----------------------------------------------------------6-------6-| 
B|---7-6---------7-6-------------------------------------8-7-----8-7---| 
G|-5-----8-5---------8-5-------5-7-8-8-8-7-5-7-7-7-5-3-5-------5-------| 
D|-----------9-8---------9-8-8-------------------------5-------5-------| 
A|---------------------------------------------------------------------| 
E|---------------------------------------------------------------------| 
 
E|-6/10-6-8-10-11-11-11-10-6-10-10-10-8-6-| 
B|----------------------------------------| 
G|----------------------------------------| 
D|----------------------------------------| 
A|----------------------------------------| 
E|----------------------------------------| 
 
E|-8-8-8-8-8-8-8-6-8--------------------| 
B|-8-8-8-8-8-8-8---8-8-6b-------6b-6-4-6| 
G|------------------------8-5-8---------| 
D|--------------------------------------| 
A|--------------------------------------| 
E|--------------------------------------| 
(
E|---------------------6/8-8-8-8-8-8-6/8-8-8-8-8-8-| 
B|-4-6b----------------6/8-8-8-8-8-8-6/8-8-8-8-8-8-| 
G|------8-8-8-10-10-10-----------------------------| 
D|------8-8-8-10-10-10-----------------------------| 
A|------6-6-6-8--8--8------------------------------| 
E|------6-6-6-8--8--8------------------------------| 

E|-7-6-6-6-6-6-6---8---8---8---| 
B|-7-6-6-6-6-6-6-6---6---6-----| 
G|-----------------------------| 
D|-----------------------------| 
A|-----------------------------| 
E|-----------------------------| 

E|---10---10/15-19-19-19-19\-| 
B|-8----8--------------------| 
G|---------------------------| 
D|---------------------------| 
A|---------------------------| 
E|---------------------------| 

E|--------------------------------------------------------------------| 
B|--------------------------------------------------------------------| 
G|-7--------------10-------5------------------------------------------| 
D|-7--------------10-------5--------------------8-8-8-----10-10-10----| 
A|-5--------------8--------3--------------------8-8-8-----10-10-10----| 
E|----------------------------------------------6-6-6-----8--8--8-----| 

E|--------------------------------------------------------------------| 
B|--------------------------------------------------------------------| 
G|-7--------------10-------5------------------------------------------| 
D|-7--------------10-------5--------------------8-8-8-----7-7-7-------| 
A|-5--------------8--------3--------------------8-8-8-----7-7-7-------| 
E|----------------------------------------------6-6-6-----5-5-5-------| 

E|-----------------------| 
B|-----------------------| 
G|---------------------7-| 
D|-7-7-7--7-7-7--7-7-7-7-| 
A|-7-7-7--7-7-7--7-7-7-5-| 
E|-5-5-5--5-5-5--5-5-5---|
            
Submit corrections

comments powered by Disqus
↑ Back to top | Nekromantix Tabs for Who Killed The Cheerleader. Lyrics for acoustic guitar and electric guitar. Tablatures and chords are parodies/interpretations of the original songs. You may use it for private study, scholarship, research or language learning purposes only