>
 >
Who Killed The Cheerleader

Who Killed The Cheerleader Guitar Tabs

Nekromantix - Who Killed The Cheerleader chords, tabs, tablatures, lyrics

Guitar lessons | Add/correct | Request | Top 50 tabs Artists:  A B C D E F G H I J K L M N O P Q R S T U V W X Y Z 0-9

Who Killed The Cheerleader Guitar Tabs – Nekromantix

CD, Sheet music, Poster

Do you like Who Killed The Cheerleader? Share with your friends now
Bass TabsTabsTabs v2Tabs v3
Tuning: Standard

Gtr I (E A D G B E) - 'Lead'
Gtr II (E A D G B E) - 'Rhythm'


Intro
Q=130
Fsus4Gsus4/C
4/4
Gtr I
H H +W
|-----------|--------|
|-----------|--------|
|-3----5----|-(5)----|
|-3----5----|-(5)----|
|-1----3----|-(3)----|
|-----------|--------|


C5
E +S E +S E E +S E S E
|----------------------------|
|----------------------------|
|----------------------------|
|----------------5-(5)-------|
|--------6-(6)-8-------8-6-5-|
|--8-(8)---------------------|
|
| Gtr II
| W
|----------------------------|
|----------------------------|
|----------------------------|
|-10-------------------------|
|-10-------------------------|
|--8-------------------------|


Eb5/Bb Bb5
E +S E +S E E +S E S E E +S E +S E E +S E S E
|---------------------------|----------------------------|
|---------------------------|----------------------------|
|---------------------------|----------------------------|
|---------------5-(5)-------|---------------5-(5)--------|
|-------6-(6)-8-------8-6-5-|-------6-(6)-8-------8-6-8--|
|-6-(6)---------------------|-6-(6)----------------------|
|
| W W
|---------------------------|----------------------------|
|---------------------------|----------------------------|
|-8-------------------------|----------------------------|
|-8-------------------------|-8--------------------------|
|-6-------------------------|-8--------------------------|
|-6-------------------------|-6--------------------------|


G#5 Bb5
E +S E +S E E +S E +S E
|-----------------------------|
|-----------------------------|
|-----------------------------|
|-6-(6)-6-(6)-6-8-(8)-8-(8)-8-|
|-6-(6)-6-(6)-6-8-(8)-8-(8)-8-|
|-4-(4)-4-(4)-4-6-(6)-6-(6)-6-|
|
| W
|-----------------------------|
|-----------------------------|
|-----------------------------|
|-----------------------------|
|-----------------------------|
|-----------------------------|


C5 Eb5/Bb
E +S E +S E E +S E S E E +S E +S E E +S E S E
|----------------------------|----------------------------|
|----------------------------|----------------------------|
|----------------------------|----------------------------|
|----------------5-(5)-------|---------------5-(5)--------|
|--------6-(6)-8-------8-6-5-|-------6-(6)-8-------8-6-8--|
|--8-(8)---------------------|-6-(6)----------------------|
|
| W W
|----------------------------|----------------------------|
|----------------------------|----------------------------|
|----------------------------|-8--------------------------|
|-10-------------------------|-8--------------------------|
|-10-------------------------|-6--------------------------|
|--8-------------------------|-6--------------------------|


Bb5 G#5
E +S E +S E E +S E S E E +S E +S E E +S E +S E
|---------------------------|-----------------------------|
|---------------------------|-----------------------------|
|---------------------------|-----------------------------|
|---------------5-(5)-------|-6-(6)-6-(6)-6-6-(6)-6-(6)-6-|
|-------6-(6)-8-------8-6-5-|-6-(6)-6-(6)-6-6-(6)-6-(6)-6-|
|-6-(6)---------------------|-4-(4)-4-(4)-4-4-(4)-4-(4)-4-|
|
| W W
|---------------------------|-----------------------------|
|---------------------------|-----------------------------|
|---------------------------|-----------------------------|
|-8-------------------------|-----------------------------|
|-8-------------------------|-----------------------------|
|-6-------------------------|-----------------------------|


F5 Am+5/F
E +S E +S E E +S E +S E S S S S S S S S S S S S S S S S
|-----------------------------|----------------------------------||
|-----------------------------|----------------------------------||
|-----------------------------|-2-2-2-2-2-2-2-2-2-2-2-2-2-2-2-2--||
|-3-(3)-3-(3)-3-3-(3)-3-(3)-3-|-3-3-3-3-3-3-3-3-3-3-3-3-3-3-3-3--||
|-3-(3)-3-(3)-3-3-(3)-3-(3)-3-|-3-3-3-3-3-3-3-3-3-3-3-3-3-3-3-3--||
|-1-(1)-1-(1)-1-1-(1)-1-(1)-1-|-1-1-1-1-1-1-1-1-1-1-1-1-1-1-1-1--||
|
| W W
|-----------------------------|----------------------------------||
|-----------------------------|----------------------------------||
|-----------------------------|----------------------------------||
|-----------------------------|----------------------------------||
|-----------------------------|----------------------------------||
|-----------------------------|----------------------------------||


Chorus
Q.=120
$
C5/G Eb5/Bb Bb5 G#5
Gtr II
Q Q Q Q Q Q Q Q Q Q Q Q Q Q Q Q
|-------------|-------------|-------------|------------|
|-------------|-------------|-------------|------------|
|-5--5--5--5--|-8--8--8--8--|-------------|------------|
|-5--5--5--5--|-8--8--8--8--|-8--8--8--8--|-6--6--8--8-|
|-3--3--3--3--|-6--6--6--6--|-8--8--8--8--|-6--6--8--8-|
|-3--3--3--3--|-6--6--6--6--|-6--6--6--6--|-4--4--6--6-|


C5/G Eb5/Bb Bb5 G#5
Q Q Q Q Q Q Q Q Q Q Q Q Q Q Q Q
|-------------|-------------|-------------|------------|
|-------------|-------------|-------------|------------|
|-5--5--5--5--|-8--8--8--8--|-------------|------------|
|-5--5--5--5--|-8--8--8--8--|-8--8--8--8--|-6--6--6--6-|
|-3--3--3--3--|-6--6--6--6--|-8--8--8--8--|-6--6--6--6-|
|-3--3--3--3--|-6--6--6--6--|-6--6--6--6--|-4--4--4--4-|


F5
Q Q Q Q Q Q Q Q
|-------------|------------||
|-------------|------------||
|-------------|------------||
|-3--3--3--3--|-3--3--3----||
|-3--3--3--3--|-3--3--3----||
|-1--1--1--1--|-1--1--1----||


Preverse
C5D5/A C5D5/A C5/G
Gtr I
E E E E E E E E E S S E S S E E Q
|-----------------|--------------------|
|-----------------|-----------------6--|
|-5s7-7-7-5s7-7-7-|-5-----5-------5----|
|-5s7-7-7-5s7-7-7-|-5-7-7---7-5-5------|
|-----------------|--------------------|
|-----------------|--------------------|


C5D5/A F/A D5/A C5/GA5/E C5/G A5C5/G
E E E E E +S E +S E E +S E +S E H
|-------------------------|-------------------||
|-------------------------|-------------------||
|-5s7-7-7-10-(10)-7-(7)-5-|-------5-(5)---5---||
|-5s7-7-7--7--(7)-7-(7)-5-|-7-(7)-5-(5)-7-5---||
|-------------------------|-7-(7)-------7-----||
|-------------------------|-------------------||


Verse
S S S S S S S S S S S S S S S S E +S E +S E E +S E +S E 4x
||----------------------------------|------------------------------||
||o---------------------------------|---------------------------6-o||
||--5s7-7-7-7-7-7-7-5s7-7-7-7-7-7-7-|-------5-(5)---------5-(5)----||
||----------------------------------|-7-(7)-------7-5-(5)----------||
||o---------------------------------|-----------------------------o||
||----------------------------------|------------------------------||


Bb/D F/A Eb/G Bb/D
Gtr II
Q Q Q Q Q Q Q Q Q Q Q Q Q Q Q Q
|-------------|-------------|-------------|------------|
|-------------|-------------|-------------|------------|
|-3--3--3--3--|-------------|-------------|-3--3--3--3-|
|-3--3--3--3--|-3--3--3--3--|-1--1--1--1--|-3--3--3--3-|
|-5--5--5--5--|-3--3--3--3--|-1--1--1--1--|-5--5--5--5-|
|-------------|-5--5--5--5--|-3--3--3--3--|------------|


D.S.
F/A Eb/G
Q Q Q Q Q Q E E E E
|-------------|----------------||
|-------------|-----------4----||
|-------------|---------5------||
|-3--3--3--3--|-1--1--5--------||
|-3--3--3--3--|-1--1-----------||
|-5--5--5--5--|-3--3-----------||


Chorus
C5/G Eb5/Bb Bb5 G#5 Bb5
Q Q Q Q Q Q Q Q Q Q Q Q Q Q Q Q
|-------------|-------------|-------------|------------|
|-------------|-------------|-------------|------------|
|-5--5--5--5--|-8--8--8--8--|-------------|------------|
|-5--5--5--5--|-8--8--8--8--|-8--8--8--8--|-6--6--8--8-|
|-3--3--3--3--|-6--6--6--6--|-8--8--8--8--|-6--6--8--8-|
|-3--3--3--3--|-6--6--6--6--|-6--6--6--6--|-4--4--6--6-|


C5/G Eb5/Bb Bb5 G#5 F5
Q Q Q Q Q Q Q Q Q Q Q Q Q Q Q Q Q H Q
|-------------|-------------|-------------|-------------|-----------|
|-------------|-------------|-------------|-------------|-----------|
|-5--5--5--5--|-8--8--8--8--|-------------|-------------|-----------|
|-5--5--5--5--|-8--8--8--8--|-8--8--8--8--|-6--6--6--6--|-3---------|
|-3--3--3--3--|-6--6--6--6--|-8--8--8--8--|-6--6--6--6--|-3---------|
|-3--3--3--3--|-6--6--6--6--|-6--6--6--6--|-4--4--4--4--|-1---------|


Pre-Solo
Q=130
E +S E +S E E +S E S E E +S E +S E E +S E S E
|---------------------------|---------------------------|
|---------------------------|---------------------------|
|---------------------------|---------------------------|
|---------------5-(5)-------|---------------5-(5)-------|
|-------6-(6)-8-------8-6-5-|-------6-(6)-8-------8-6-5-|
|-8-(8)---------------------|-6-(6)---------------------|


E +S E +S E E +S E S E
|----------------------------|
|----------------------------|
|----------------------------|
|---------------5-(5)--------|
|-------6-(6)-8-------8-6-8--|
|-6-(6)----------------------|


G#5 Bb5
E +S E +S E E +S E +S E
|-----------------------------|
|-----------------------------|
|-----------------------------|
|-6-(6)-6-(6)-6-8-(8)-8-(8)-8-|
|-6-(6)-6-(6)-6-8-(8)-8-(8)-8-|
|-4-(4)-4-(4)-4-6-(6)-6-(6)-6-|


E +S E +S E E +S E S E E +S E +S E E +S E S E
|---------------------------|----------------------------|
|---------------------------|----------------------------|
|---------------------------|----------------------------|
|---------------5-(5)-------|---------------5-(5)--------|
|-------6-(6)-8-------8-6-5-|-------6-(6)-8-------8-6-8--|
|-8-(8)---------------------|-6-(6)----------------------|


Q.=120
G#5
E +S E +S E E +S E S E E +S E +S E E +S E +S E
|---------------------------|-----------------------------|
|---------------------------|-----------------------------|
|---------------------------|-----------------------------|
|---------------5-(5)-------|-6-(6)-6-(6)-6-6-(6)-6-(6)-6-|
|-------6-(6)-8-------8-6-5-|-6-(6)-6-(6)-6-6-(6)-6-(6)-6-|
|-6-(6)---------------------|-4-(4)-4-(4)-4-4-(4)-4-(4)-4-|


F5 F
E +S E +S E E +S E +S E S S S S S S S S S S S S S S S S
|-----------------------------|----------------------------------|
|-----------------------------|----------------------------------|
|-----------------------------|-2-2-2-2-2-2-2-2-2-2-2-2-2-2-2-2--|
|-3-(3)-3-(3)-3-3-(3)-3-(3)-3-|-3-3-3-3-3-3-3-3-3-3-3-3-3-3-3-3--|
|-3-(3)-3-(3)-3-3-(3)-3-(3)-3-|-3-3-3-3-3-3-3-3-3-3-3-3-3-3-3-3--|
|-1-(1)-1-(1)-1-1-(1)-1-(1)-1-|-1-1-1-1-1-1-1-1-1-1-1-1-1-1-1-1--|


Solo
Gtr I
E. E +S E E +S E +S E E. E +S E E +S E +S E
|----------------------------|---------------------------|
|-----8-(8)-7-6-(6)----------|----8-(8)-7-6-(6)----------|
|-5-----------------8-(8)----|------------------8-(8)----|
|-------------------------10-|-8----------------------10-|
|----------------------------|---------------------------|
|----------------------------|---------------------------|


Bb
H E E E S S E E E E +S E S S S S S
|----------------|--------------------------|
|----------------|--------------------------|
|-7------5-7-8-8-|-8-7-5-7-(7)-7-5s7-5-3-5--|
|-8----8---------|--------------------------|
|----------------|--------------------------|
|----------------|--------------------------|


C5/G C5/G
E +S E +S E E +S E +S E E +S E +S E E +S E +S E
|---------------------6-(6)---|---------------------6-(6)---|
|-------8-(8)-7-8-(8)-------8-|-------8-(8)-7-8-(8)-------8-|
|-5-(5)-----------------------|-5-(5)-----------------------|
|-5-(5)-----------------------|-5-(5)-----------------------|
|-----------------------------|-----------------------------|
|-----------------------------|-----------------------------|


S H E E E S S E E E E E S E E
|-6s10----6-8-10-11-|-11-11-10-6-10-10-10-8-6-|
|-------------------|-------------------------|
|-------------------|-------------------------|
|-------------------|-------------------------|
|-------------------|-------------------------|
|-------------------|-------------------------|


C5/G C5/G
E S S E E E E E E E Q S S E S S Q E E E S S E E E E
|-8-8-8-8-8-8-8-6-8-|---------------------|-------------------|
|-8-8-8-8-8-8-8---8-|-8-6b7r=======6-4-6--|-4-6-7-8-8-8-6-4-6-|
|-------------------|--------8-5-8--------|-------------------|
|-------------------|---------------------|-------------------|
|-------------------|---------------------|-------------------|
|-------------------|---------------------|-------------------|


Eb5/Bb F5/C BbC5/G
E E E E E E E E S S S S S S S S S S S S S S S S
|---------------------|-6s8-8-8-8-8-8-8-8-8-8-8-8-8-8-8-|
|---------------------|-6s8-8-8-8-8-8-8-8-8-8-8-8-8-8-8-|
|-8-8-8-8-10-10-10-10-|---------------------------------|
|-8-8-8-8-10-10-10-10-|---------------------------------|
|-6-6-6-6--8--8--8--8-|---------------------------------|
|-6-6-6-6--8--8--8--8-|---------------------------------|


BbC5/G
S S S S S S S S S S S S S S S S
|-6s8-8-8-8-8-8-8-8-8-8-8-8-8-8-8--|
|-6s8-8-8-8-8-8-8-8-8-8-8-8-8-8-8--|
|----------------------------------|
|----------------------------------|
|----------------------------------|
|----------------------------------|


B5Bb5/F
E S S S S S S S S E Q E +S E +S E E +S E +S E
|-7s6-6-6-6-6-6-6-6-6-6\--|-------8-(8)---8-(8)-------8-|
|-7s6-6-6-6-6-6-6-6-6-6\--|-6-(6)-------6-------6-(6)---|
|-------------------------|-----------------------------|
|-------------------------|-----------------------------|
|-------------------------|-----------------------------|
|-------------------------|-----------------------------|


E +S E +S E S S S S E E
|-------10-(10)---10s15-19-19-19-19\--||
|-8-(8)---------8---------------------||
|-------------------------------------||
|-------------------------------------||
|-------------------------------------||
|-------------------------------------||


Chorus
D5 F5 C5 Bb5
Gtr II
Q Q Q Q Q Q Q Q Q Q Q Q Q Q Q Q 3x
||--------------|-----------------|-----------------|----------------||
||o-------------|-----------------|-----------------|---------------o||
||--7--7--7--7--|-10--10--10--10--|-----------------|----------------||
||--7--7--7--7--|-10--10--10--10--|-10--10--10--10--|-8--8--10--10---||
||o-5--5--5--5--|--8---8---8---8--|-10--10--10--10--|-8--8--10--10--o||
||--------------|-----------------|--8---8---8---8--|-6--6---8---8---||


D5 F5 C5 Bb5
Q Q Q Q Q Q Q Q Q Q Q Q Q Q Q Q
|-------------|-----------------|-----------------|------------|
|-------------|-----------------|-----------------|------------|
|-7--7--7--7--|-10--10--10--10--|-----------------|------------|
|-7--7--7--7--|-10--10--10--10--|-10--10--10--10--|-8--8--8--8-|
|-5--5--5--5--|--8---8---8---8--|-10--10--10--10--|-8--8--8--8-|
|-------------|-----------------|--8---8---8---8--|-6--6--6--6-|


A5
Q Q Q Q Q Q Q Q
||--------------|-------------||
||o-------------|------------o||
||--------------|-------------||
||--7--7--7--7--|-7--7--7--7--||
||o-7--7--7--7--|-7--7--7--7-o||
||--5--5--5--5--|-5--5--5--5--||


C5 G5
Q Q Q Q Q Q Q Q Q Q Q Q Q Q Q Q
||--------------|-------------|-------------|-------------|
||o-------------|-------------|-------------|-------------|
||--5--5--5--5--|-5--5--5--5--|-------------|-------------|
||--5--5--5--5--|-5--5--5--5--|-5--5--5--5--|-5--5--5--5--|
||o-3--3--3--3--|-3--3--3--3--|-5--5--5--5--|-5--5--5--5--|
||--------------|-------------|-3--3--3--3--|-3--3--3--3--|


F5 Bb5 A5
Q Q Q Q Q Q Q Q Q Q Q Q Q Q Q Q 3x
|-------------|-------------|-------------|-------------||
|-------------|-------------|-------------|------------o||
|-------------|-------------|-3--3--3--3--|-2--2--2--2--||
|-3--3--3--3--|-3--3--3--3--|-3--3--3--3--|-2--2--2--2--||
|-3--3--3--3--|-3--3--3--3--|-1--1--1--1--|-0--0--0--0-o||
|-1--1--1--1--|-1--1--1--1--|-------------|-------------||


C5 G5
Q Q Q Q Q Q Q Q Q Q Q Q Q Q Q Q
|-------------|-------------|-------------|------------|
|-------------|-------------|-------------|------------|
|-5--5--5--5--|-5--5--5--5--|-------------|------------|
|-5--5--5--5--|-5--5--5--5--|-5--5--5--5--|-5--5--5--5-|
|-3--3--3--3--|-3--3--3--3--|-5--5--5--5--|-5--5--5--5-|
|-------------|-------------|-3--3--3--3--|-3--3--3--3-|


F5 Bb5
Q Q Q Q Q Q Q Q Q Q Q Q
|-------------|-------------|-------------|
|-------------|-------------|-------------|
|-------------|-------------|-3--3--3--3--|
|-3--3--3--3--|-3--3--3--3--|-3--3--3--3--|
|-3--3--3--3--|-3--3--3--3--|-1--1--1--1--|
|-1--1--1--1--|-1--1--1--1--|-------------|


A5 G5 A5 G5 A5 G5 A5
Gtr I
PM PM PM
Q Q Q Q Q Q Q Q Q Q Q Q
|-------------|-------------|-------------|
|-------------|-------------|-------------|
|-------------|-------------|-------------|
|-7--7--5--7--|-7--5--7--7--|-5--7--7--7--|
|-7--7--5--7--|-7--5--7--7--|-5--7--7--7--|
|-5--5--3--5--|-5--3--5--5--|-3--5--5--5--|


A5 G5 A5 G5 A5 G5 A5 D5
PM PM PM
Q Q Q Q Q Q Q Q Q Q Q Q W Q H Q
|-------------|-------------|-------------|----------|-----------*|
|-------------|-------------|-------------|----------|-----------*|
|-------------|-------------|-------------|-7--------|-7---------*|
|-7--7--5--7--|-7--5--7--7--|-5--7--7--7--|-7--------|-7---------*|
|-7--7--5--7--|-7--5--7--7--|-5--7--7--7--|-5--------|-5---------*|
|-5--5--3--5--|-5--3--5--5--|-3--5--5--5--|----------|-----------*|





Comments


Popular Nekromantix tabs & chords
Subcultural Girl Bass Tabs
Trick Or Treat Bass Tabs
Sea Of Res Chords
Gargoyles Over Copenhagen Tabs
Haunted Cathouse 3 Tabs
Nekrofelia 3 Tabs
Rubbermonks And Leathernuns Tabs
Who Killed The Cheerleader (Intro Ver 2) Tabs
Who Killed The Cheerleader 2 Tabs
Who Killed The Cheerleader Intro 1 Tabs


Song lyrics



↑ Back to top | Tablatures and chords are parodies/interpretations of the original songs. You may use it for private study, scholarship, research or language learning purposes only
© 2014 AZChords.com Contact us | Privacy policy | DMCA | Add/correct tabs | Request tabs | Top 50 tabs