» » »

Voodoo Shop Hop Bass tabs (ver.1)

Artists:  A B C D E F G H I J K L M N O P Q R S T U V W X Y Z # 

Voodoo Shop Hop Bass tabs (ver.1)

Nekromantix
Rating:
0/5 (0 votes)

Hard to play? Try these video lessons and learn fast.
                
This isn't perfect, but it should give you an idea on how to play it.
Nekroman uses alot of scales in their music. So just use your imagination, please rate!

G:-----------------------------------|
D:-----------------------------------|
A:-----1111-5555-1111-0000-3333-6865-|
E:3333-------------------------------|

G:---------7654---------------|
D:--------------8654----------|
A:5---5--------------86543210-|
E:----------------------------|

"I had a mission, I had a goal" part
Verse 1
G:------------------------------------|
D:------------------------------------|
A:-------------------------11113333---|  X2
E:333333333333333333333333------------|

"No I had to go for the real deal" part

G:-------------------------------------|
D:-------------------------------------|
A:33333333-6666-2222-33333333-55555555-|
E:-------------------------------------|

G:---------------------------------4577754-----|
D:-----------------------------457--------754--|
A:33333333-6666-2222-33333333-5--------------5-|
E:---------------------------------------------|

Chorus
G:------------------------------------|
D:------------------------------------|
A:-----1111-5555-1111-0000-3333-6865--| X2
E:3333--------------------------------|

G:----4577754------|
D:-457--------754--|
A:5--------------5-|
E:-----------------|

Verse 2
G:------------------------------------|
D:------------------------------------|
A:-------------------------11113333---|  X2
E:333333333333333333333333------------|

G:-------------------------------------|
D:-------------------------------------|
A:33333333-6666-2222-33333333-55555555-|
E:-------------------------------------|

G:---------------------------------4577754-----|
D:-----------------------------457--------754--|
A:33333333-6666-2222-33333333-5--------------5-|
E:---------------------------------------------|

Chorus
G:------------------------------------|
D:------------------------------------|
A:-----1111-5555-1111-0000-3333-6865--| X2
E:3333--------------------------------|

G:----4577754------|
D:-457--------754--|
A:5--------------5-|
E:-----------------|

Bridge
"Graveyard Dirt and a rusty nail, chicken feet and virgin blood" part

G:--------------|
D:--------------|
A:--0-1-3-5-6---|
E:3-----------3-|

G:--------------|
D:5-3-1---1-3---|
A:------3-------|
E:------------3-|

"Now Spice it up with spanish flies" part
G:----------------|
D:----------------|
A:----------------|
E:3333333333333333

Solo
G:------------------------------------|
D:55555555----------------------------|
A:---------66666666-33333333-55555555-|
E:------------------------------------|


Chorus
G:------------------------------------|
D:------------------------------------|
A:-----1111-5555-1111-0000-3333-6865--| X2
E:3333--------------------------------|

G:----4577754------|
D:-457--------754--|
A:5--------------5-|
E:-----------------|

Break

Outro
G:------------------------------------|
D:55555555----------------------------|
A:---------66666666-33333333-55555555-|
E:------------------------------------|
            
Hard to play? Try these video lessons and learn fast. | Correct




comments powered by Disqus
↑ Back to top | Tablatures and chords are parodies/interpretations of the original songs. You may use it for private study, scholarship, research or language learning purposes only