>
 >
Trick Or Treat

Trick Or Treat Bass Tabs

Nekromantix - Trick Or Treat chords, tabs, tablatures, lyrics

Guitar lessons | Add/correct | Request | Top 50 tabs Artists:  A B C D E F G H I J K L M N O P Q R S T U V W X Y Z 0-9

Trick Or Treat Bass Tabs – Nekromantix

CD, Sheet music, Poster

Do you like Trick Or Treat? Share with your friends now
Bass Tabs
Bassist: Kim Nekroman
Tuning: Standard

Intro
G|-------------------3-3p2-0-----------------3-3p2-0---|
D|-0h3-5-5-5-5-8-7\1---------3-5-5-5-5-8-7\1---------1-|
A|-----------------------------------------------------|
E|-----------------------------------------------------|

G|---3-5-3---7-6-5---3-2-0-----------3-5-7---3-5-7-00----------|
D|-5-------5-------5-------3-1-0---5-------5----------33-11-00-|
A|-------------------------------3-----------------------------|
E|-------------------------------------------------------------|

Chorus
G|-----------------0-2-3---------|-----------------0-3-0---------|
D|-55---3-55---3-1-------1-0---0-|-55---3-55---3-1-------0-1-3-4-|go back to start
A|----5------5---------------3---|----5------5-------------------|after start go to
E|-------------------------------|-------------------------------|next part

G|----33------------2-3---------|
D|-55----55-0-3-1-1-----1-1-0-1-|
A|------------------------------|
E|------------------------------|

Verse
G|---------------------------------|---------------------------------|
D|-----------------1-1-1-1-0-0-0-0-|---------------------------------|
A|-3-1-0---3-1-0-------------------|---1-3-1---1-3-1---0-1-3-1-0-----|
E|-------3-------3-----------------|-3-------3-------1-----------3-1-|

G|-55---3-55---3-----------------|
D|----5------5---1-1-1-1-0-0-0-0-|
A|-------------------------------|
E|-------------------------------|

-chorus
-verse
-chorus

Bridge
G|--------------0-2-----0-2---2-3-5-7-5-3-2---------------------------------|
D|-33333333-0-3-----0-3-----3---------------0-------0-----------------------|
A|--------------------------------------------3-1-0---3-1-0-----0-3-----0-3-|
E|----------------------------------------------------------1-1-----1-1-----|

G|-----0-2-----0-2---2-3-5-7-5-3-2-------0-22-5-7-0~-|
D|-0-3-----0-3-----3----------------00-3-------------|
A|---------------------------------------------------|
E|---------------------------------------------------|

Have have a happy Halloween
G|-------3---3-5-3-----5-3-----5-3-2-3---3-5-3---3-5-3------7-------7---|
D|-0h3-5---5-------5-3-----5-3---------5-------5------------------------|
A|----------------------------------------------------------------------|
E|------------------------------------------------------6-5---5-6-5---5-|

G|---3-5-7-------------7-----7-----|
D|-5-------5-3-1-0---------5---3-4-|
A|---------------------------------|
E|-----------------3-6---6---------|

Guitar Solo
G|------------------0-3-0---------------------2-3---------|
D|-55---3-55---3--1-------1-1-3-4-5-----3-1-1-----1-0---0-|
A|----5------5----------------------6-5---------------3---|
E|--------------------------------------------------------|

G|---3-------3-------0-3-0----------3-5-7-5-3-5-3-----2-3---------|
D|-5---0-3-5---5-3-1-------00-3-4-5---------------1-1-----1-0---0-|
A|------------------------------------------------------------3---|
E|----------------------------------------------------------------|





Comments


Popular Nekromantix tabs & chords
Who Killed The Cheerleader Bass Tabs
Nekrofelia Chords
Alive Intro 1 Tabs
Cave Canem Intro Tabs
Dead Girls Don't Cry Tabs
Gargoyles Over Copenhagen Tabs
Haunted Cathouse 3 Tabs
Nekrofelia 2 Tabs
Rubbermonks And Leathernuns Tabs
Who Killed The Cheerleader 2 Tabs


Song lyrics



↑ Back to top | Tablatures and chords are parodies/interpretations of the original songs. You may use it for private study, scholarship, research or language learning purposes only
© 2014 AZChords.com Contact us | Privacy policy | DMCA | Add/correct tabs | Request tabs | Top 50 tabs