» » »

Nekromantix, Rubbermonks And Leathernuns Tabs (ver.1)

Artists:  A B C D E F G H I J K L M N O P Q R S T U V W X Y Z # 

Rubbermonks And Leathernuns Tabs (ver.1)

Nekromantix Tabs
Rating:
0/5 (0 votes)
Rubbermonks And Leathernuns lessons Tabs too difficult? Try these video lessons and learn fast
                
Tuning:EADGBE
Lead Guitar
strum this chords for a while in the intro Clean for about 11X then Distortion
e|--5-------6------6-6-------------------------------------------------------|
B|--5-------8------8-8-------------------------------------------------------|
G|--6-------8--3x-10-8-------------------------------------------------------|
D|--7-5x----8-----8--8-------------------------------------------------------|
A|--7-------6-----6--6-------------------------------------------------------|
E|--5------------------------------------------------------------------------|

Rhythm play along with the chords above
e|---------------------------------------------------------------------------|
B|---------------------------------------------------------------------------|
G|------------------------8--------------------------------------------------|
D|---------5----5---------8--8-----------------------------------------------|
A|--7--7---3-~--3--7--7---6--6-----------------------------------------------|
E|--5--5-----------5--5------------------------------------------------------|
1stVerse
e|---------------------------------------------------------------------------|
B|---------------------------------------------------------------------------|
G|---------------------------------------------------------------------------|
D|-8\-10-----3--3---6--6-\-8-------------------------------------------------|
A|-8\-10--4x-3--3---6--6-\-8-------------------------------------------------|
E|-6\-8------1--1---4--4-\-6-------------------------------------------------|
2ndverse pralmuted except for some notes that u can probably figure out
e|-------------------------66666------------------------------------------|
B|-------------------------88888------------------------------------------|
G|---------4\5555----------88888------------------------------------------|
D|--6\7777-4\5555--6-7777--88888------------------------------------------|
A|--6\7777-2\3333--6-7777--66666------------------------------------------|
E|--4\5555---------4\5555-------------------------------------------------|
Chorus
e|-------------------------------------------------------------------|
B|-------------------------------------------------------------------|
G|------------------------3\55555555---------------------------------|
D|-66666666----555555555--3\55555555-33333333--5\6-------------------|
A|-66666666----555555555--1\33333333-33333333--5\6-------------------|
E|-44444444----333333333-------------11111111--3\4-------------------|


e|--------------------------------------------------------------------------|
B|--------------------------------------------------------------------------|
G|--------------------------------------------------------------------------|
D|-66666666-6-/-3-----------------------------------------------------------|
A|-66666666-6-/-3-----------------------------------------------------------|
E|-44444444-4-/-1-----------------------------------------------------------|
Leather PUnk PLeasure! and back to the 1st verse


The solo done between the chorus later in the song is something along the lines of this

E|-36363---------------3\11111111/-3--11-11-10-10-8-8-6-8----------|
B|-36363--6^5-3-0-(3x)-3\11111111/-3--11-11-10-10-8-8-6-8----------|
G|-----------------------------------------------------------------|
D|-----------------------------------------------------------------|
A|-----------------------------------------------------------------|
E|-----------------------------------------------------------------|
 RIFF after last chorus
E|-------------------------------------------------------------------|
B|-------------------------------------------------------------------|
G|-5------------/3\-5-------------------5/3--------------------------|
D|-5---let-ring-/3\-5----whammybar------5/3--------------------------|
A|-3------------/1\-3-------------------3/1--------------------------|
E|-------------------------------------------------------------------|

E|slightlypalmmuted-----------------------------------------------------|
B|----------------------------------------------------------------------|
G|----------------------------------------------------------------------|
D|----------------------------------------------------------------------|
A|--33333333333\666666\10101010/99999999999-5-6--99999--5-6-8888888-----|
E|----------------------------------------------------------------------|

E|--------------------------------------------------------------------|
B|--------------------------------------------------------------------|
G|--------------------------------------------------------------------|
D|--------------------------------------------------------------------|
A|--666666/5555555----------------------------------------------------|
E|--------------------------------------------------------------------|


E|-----------------------------------------------------------------|
B|-----------------------------------------------------------------|
G|-----------------------------------------------------------------|
D|-----------------------------------------------------------------|
A|--33333333333\666666\10101010/99999999999-5-6--8888888-----------|
E|-----------------------------------------------------------------|

E|------------------------------------------------------------------|
B|------------------------------------------------------------------|
G|------------------------------------------------------------------|
D|------------------------------------------------------------------|
A|--666666/5555555--------------------------------------------------|
E|------------------------------------------------------------------|

outro
E|-------3---------3\88888---------------------------------------|
B|-------3---------3\88888---------------------------------------|
G|-3\5-5-3--(3x)---3\88888---------------------------------------|
D|-3\5-5--------------------6----------3-------------------------|
A|-1\3-3--------------------6-letring--3---letring---------------|
E|--------------------------4----------1-------------------------|

E|-------3--------88888888---------------------------------------|
B|-------3--------88888888---------------------------------------|
G|-3\5-5-3--(3x)--88888888---------------------------------------|
D|-3\5-5--------------------6----------3-------------------------|
A|-1\3-3--------------------6-letring--3---letring---------------|
E|--------------------------4----------1-------------------------|


E|-------3--------8888811118---------------------------------------|
B|-------3--------8888811118---------------------------------------|
G|-3\5-5-3--(3x)--88888----8---------------------------------------|
D|-3\5-5--------------------6----------3---------------------------|
A|-1\3-3--------------------6-letring--3---letring-----------------|
E|--------------------------4----------1---------------------------|

E|-------3--------888888--------------------------------------------|
B|-------3--------888888^75-----------------------------------------|
G|-3\5-5-3--(3x)--888888^75-----------------------------------------|
D|-3\5-5--------------------6----------3----------------------------|
A|-1\3-3--------------------6-letring--3---letring------------------|
E|--------------------------4----------1----------------------------|

just repeat till the songs over
| /  slide up
| \  slide down

============================================================================
            
Submit corrections

comments powered by Disqus
↑ Back to top | Nekromantix Tabs for Rubbermonks And Leathernuns. Lyrics for acoustic guitar and electric guitar. Tablatures and chords are parodies/interpretations of the original songs. You may use it for private study, scholarship, research or language learning purposes only