>
 >
Nice Day For A Resurrection

Nice Day For A Resurrection Bass Tabs

Nekromantix - Nice Day For A Resurrection chords, tabs, tablatures, lyrics

Guitar lessons | Add/correct | Request | Top 50 tabs Artists:  A B C D E F G H I J K L M N O P Q R S T U V W X Y Z 0-9

Nice Day For A Resurrection Bass Tabs – Nekromantix

CD, Sheet music, Poster

Do you like Nice Day For A Resurrection? Share with your friends now
Bass TabsTabsTabs v2
Intro                                  A
G|------------------------------------------------------------------------------|
D|----------2~------------------------------------------------------------------|
A|-2~----2~----2~----222222222222222222222222222222222222-11-00-----------------|
E|----2~----------2~--------------------------------------------44-33-22-11-00~-|
        B              C                            D  
G|------------|-----------------|--------------------------------------------|
D|------------|---0-4-0-2-0-3-0-|-------------------22222222-------------0-2-|
A|-0-22222222-|-2---------------|-22222222-----------------------------------|
E|------------|-----------------|----------33333333----------2-3-2-3-2-0-----|
                                     E
G|-----------------------------------1-4-1---1-4-1-------------------|
D|---0-4-0---0-4-0-----------------2-------2-------4-5-4-5-4-2-0-2---|
A|-2-------2---------2-5-2---2-5-2---------------------------------2-|
E|-----------------3-------3-----------------------------------------|

Verse
G|---------------------------------------------------|-----------------|
D|---0-4-0---0-4-0-----------------------------------|-----------------|
A|-2-------2---------2-5-2---2-5-2-------2-------2---|---0-4-0---0-4-0-|
E|-----------------3-------3---------0-4---4-0-4---4-|-2-------2-------|

Second time replace the ending with this
G|-----------------|
D|-------------0-2-|
A|-----------------|
E|-2-3-2-3-2-0-----|

Preverse
G|---------------------1-4-1---1-4-1-------------------|
D|-------------------2-------2-------4-5-4-5-4-2-0-2---|
A|-22222222------------------------------------------2-|
E|----------33333333-----------------------------------|

-verse

Prechorus
G|-----------------------------------------------|
D|-----------------------------------------------|
A|-2222222-0-2222222-0-2222222-0-2-1-0---0-1-2-3-|
E|-------------------------------------4---------|

Chorus
G|-----1-------1-----1-4-1---1-4-1---------------------------|
D|---2---2---2---2-2-------2---------1-4-1---1-4-1-----------|
A|-4-------4-----------------------2-------2-----------------|
E|-------------------------------------------------2222-3333-|

G|-----1--------1-----1-4-1---1-4-1---------4-------------------|
D|---2---2----2---2-2-------2---------1-2-4---4-2-0-------------|
A|-4--------4-----------------------2---------------------------|
E|--------------------------------------------------2-333-2-333-|

-intro c
-preverse
-verse
-prechorus

Chorus
G|-----1-------1-----4---4---4---4-----4-------4-------------------|
D|---2---2---2---2-2---2---2---2-----4---4---4---4-----------------|
A|-4-------4-----------------------2-------2-----------0-2-----0-2-|
E|-------------------------------------------------2-3-----2-3-----|

Bridge
G|----------------------------------------------------------|
D|----------2~---------------------------------2-22---0-4-0-|
A|-2~----2~----2-2-2222-2-2-2222----------2-22------2-------|
E|----2~-------------------------2-2-2222-------------------|

Guitar Solo
G|-------1-------1---1-4-1---------------4-----------------------|
D|---2-4-----2-4---2-------4-2-1---1-2-4---4-2-0-----------------|
A|-4-------4---------------------2-------------------0-2-----0-2-|
E|-----------------------------------------------2-3-----2-3-----|

G|---------4---------1-2-1-----------------------------------------|
D|---6---6---6-4-1-2-------4-2-1-0---1-4-1---1-4-1-----------------|
A|-4---4---------------------------2-------2---------0-2-4---0-2-4-|
E|-------------------------------------------------2-------2-------|

-2nd chorus
-1st chorus
-2nd chorus 

Ending
G|---------------|
D|-4-2-0---------|
A|-------4-2-0-2-|
E|---------------|





Comments


Popular Nekromantix tabs & chords
I'm A Hellcat Bass Tabs
Last Night I Saved An Angel 1 Bass Tabs
Cave Canem Intro Tabs
Flowers Are Slow Intro Tabs
Haunted Cathouse 1 Tabs
Nekrofelia 2 Tabs
Nekronaunts Tabs
Nice Day For A Resurrection Tabs
Rubbermonks And Leathernuns Tabs
Who Killed The Cheerleader (Intro Ver 2) Tabs


Song lyrics



↑ Back to top | Tablatures and chords are parodies/interpretations of the original songs. You may use it for private study, scholarship, research or language learning purposes only
© 2014 AZChords.com Contact us | Privacy policy | DMCA | Add/correct tabs | Request tabs | Top 50 tabs