» » »

Nekromantix, I'm A Hellcat Bass tabs (ver.1)

Artists:  A B C D E F G H I J K L M N O P Q R S T U V W X Y Z # 

I'm A Hellcat Bass tabs (ver.1)

Nekromantix Tabs
 Rating:
4/5 (4 votes)
I'm A Hellcat lessons Tabs too difficult? Try these video lessons and learn fast
1
                Album:Return of the Loving Dead


I'm pretty sure this tab is about %90 right, please rate bassists!


Intro
G|-------------|
D|-------------|
A|-------------|
E|4-3----------|

G|------------------|
D|------------------|
A|------------------|
E|77777777-4444-3333

Verse
G|----------------|
D|----------------|  X4
A|----------------|
E|7---4444-3333---|

Pre-Chorus
G|----------------------------3-4-6--3-4-6-------------|
D|---------------------------4------4------44-22-00----|
A|---------22222222---------------------------------44-|
E|00000000----------00000000---------------------------|

Chorus
G|------------------|
D|------------------|
A|------------------|
E|77777777-4444-3333

Verse
G|----------------|
D|----------------|  X4
A|----------------|
E|7---4444-3333---|

Pre-Chorus
G|----------------------------3-4-6--3-4-6-------------|
D|---------------------------4------4------44-22-00----|
A|---------22222222---------------------------------44-|
E|00000000----------00000000---------------------------|

Chorus
G|------------------|
D|------------------|
A|------------------|
E|77777777-4444-3333

Bridge
G|--------------------------------|
D|--------------------------------|
A|--------------------------------|
E|22222222222222222222222222222222

G|------------------------------|
D|-4-5-7--4-5-7--6-7-9--6-7-9---|
A|5------5------7------7--------|  X3
E|------------------------------|

G|----------------------------|
D|-4-5-7--4-5-7---------------|
A|5------5--------------------|
E|-------------222222222222-2-|

Solo
G|------------------|
D|------------------|
A|------------------|
E|77777777-4444-3333

Chorus
G|------------------|
D|------------------|
A|------------------| X4
E|77777777-4444-3333

G|------------------------------|
D|------------------------------|
A|------------------------7777--|
E|444433334444333344443333----7-|

Lyrics

Verse
My heart's on fire got flames down my spine
Been there done that I walked the line
don't give a damn about what people think or say
if you don't like what you see get outta my way

Pre-Chorus
Rattlesnake bitemarks creeping up my backbone
Rockabilly burnout crackin up my headstone

Chorus
I'm a Hellcat f**k edermandme
Psycho to the bone fandme hey hey hey
I'm a Hellcat f**k edermandme all the way
Psycho to the bone fandme hey hey hey

Verse
I'm a child of the night, free as a bat.
Come on little birdies meet the devil's pussy cat
I do what I want and I say whay I like
if you can't take the heat go take a hike

Pre-Chorus
Rattlesnake bitemarks creepin up my backbone
Rockabilly burnout crackin up my headstone

Chorus
I'm a Hellcat f**k edermandme
Psycho to the bone fanme hey hey hey
I'm a Hellcat f**k edermandme all the way
Psycho to the bone fandme hey hey hey

Bridge
OH YEAH!

Writing circles in the desert sand
gever's burning in my head
a rattlesnake is sleeping at my hand
we're about to raise the dead!

(Solo)

Pre-Chorus
Rattlesnake bitemarks creepin up my backbone
Rockabilly kick start crackin up my headstone

Chorus
I'm a Hellcat f**k edermandme all the way
Psycho to the bone fandme hey hey hey hey!
I got punk rock blood runnin in my veins!
The rockabilly disease eatin up my brains!

YEAH ROCK!
            
Submit corrections

comments powered by Disqus
↑ Back to top | Nekromantix Bass for I'm A Hellcat. Lyrics for acoustic guitar and electric guitar. 1 Tablatures and chords are parodies/interpretations of the original songs. You may use it for private study, scholarship, research or language learning purposes only