» » »

I'm A Hellcat Tabs (ver.1)

Artists:  A B C D E F G H I J K L M N O P Q R S T U V W X Y Z # 

I'm A Hellcat Tabs (ver.1)

Nekromantix
Rating:
4/5 (1 vote)

Hard to play? Try these video lessons and learn fast.
                Intro
e--------------------------|
b--------------------------|
g--------------------------|
d--6~---5~-----------------|
a--6~---5~-----------------|
E--4~---3~-----------------|

Main Riff/Chorus
e-----------------------------------|
b-----------------------------------|
g-/4-4-4-4-4-4-4-4------------------|
d-/4-4-4-4-4-4-4-4-6-6-6-6-5-5-5-5--|
a-/2-2-2-2-2-2-2-2-6-6-6-6-5-5-5-5--|
E------------------4-4-4-4-3-3-3-3--|

Pre-Chorus
e---------------------------------------------------------------------------------|
b---------------------------------------------------------------------------------|
g---------------------------------------------------------------------------------|
d-2-2-2-2-2-2-2-2-4-4-4-4-4-4-4-3-2-2-2-2-2-2-2-2-4-4-4-4-4-4-4-3-4-4-4-4-4-4-4-4-|
a-2-2-2-2-2-2-2-2-4-4-4-4-4-4-4-3-2-2-2-2-2-2-2-2-4-4-4-4-4-4-4-3-4-4-4-4-4-4-4-4-|
E-0-0-0-0-0-0-0-0-2-2-2-2-2-2-2-1-0-0-0-0-0-0-0-0-2-2-2-2-2-2-2-1-2-2-2-2-2-2-2-2-|

Bridge
e----------------------------------|
b----------------------------------|
g-7-7-7-7-7-7-7-8-9-9-9-9-9-9-9-8--|
d-7-7-7-7-7-7-7-8-9-9-9-9-9-9-9-8--|
a-5-5-5-5-5-5-5-6-7-7-7-7-7-7-7-6--|
E----------------------------------|

Song Order
_________

Intro: 1x
Main Riff: 8x
Pre-chorus: 1x
Main fiff: 8x
Pre-chorus: 1x
main riff: 4x
Bridge: 4x
            
Hard to play? Try these video lessons and learn fast. | Correct




comments powered by Disqus
↑ Back to top | Tablatures and chords are parodies/interpretations of the original songs. You may use it for private study, scholarship, research or language learning purposes only