>
 >
Horny In A Hearse

Horny In A Hearse Guitar Tabs

Nekromantix - Horny In A Hearse chords, tabs, tablatures, lyrics

Guitar lessons | Add/correct | Request | Top 50 tabs Artists:  A B C D E F G H I J K L M N O P Q R S T U V W X Y Z 0-9

Horny In A Hearse Guitar Tabs – Nekromantix

CD, Sheet music, Poster

Do you like Horny In A Hearse? Share with your friends now
Tabs
-------------------------------------------------------------------------------
-------------------------------------------------------------------------------

Tuning: Standard (EADGBe)

Chords used:
Am xx7555
Dm x57765
E  022100
F  xx3211
Cm x35543
Gm xx5333


  RIFF

e|-5~--5---5-6-8-6-5~--8~-----------|
B|-5~--5-8-5-6-6-6-5~-----8~--------|
G|-5~--5-5-5-6-6-6-5~--------7-8~---|
D|-7~--------------7~---------------|
A|----------------------------------|
E|----------------------------------|

  VERSE

e|-5----------------------5--------------------------5----------|
B|-5----------------------5----------------------5---5----------|
G|-5----------------------5--------------------5---5-5----------|
D|-7----------------------7------------------7------------------|
A|--------------------------------------------------------------|
E|--------------------------------------------------------------|
   I needed something...  So I bought a 1959 Hearse Cadillac

e|-5---------------------------------------8888-8888-----------------|
B|-5---------------------------------------8888-8888-----------------|
G|-5---------------------------------------7777-7777----5-7-7h8-7-5--|
D|-7--------------------------------------------------7--------------|
A|-------------------------------------------------------------------|
E|-------------------------------------------------------------------|
   Mint condition... Shiny and pitch black

  PRE-CHORUS

e|-5--------------------0-------------5------------------------------|
B|-6--------------------0-------------5------------------------------|
G|-7--------------------1-------------5--9p7p5-5h7p5-----------------|
D|-7--------------------2-------------7--------------7-6h7-----------|
A|-5--------------------2--------------------------------------------|
E|----------------------0--------------------------------------------|
   She's aroused by the power of the V8

e|-5--------------------0-------------5-12p10p8-10p8p7-7h8p7-4-5-----|
B|-6--------------------0-------------5------------------------------|
G|-7--------------------1-------------5------------------------------|
D|-7--------------------2-------------7------------------------------|
A|-5--------------------2--------------------------------------------|
E|----------------------0--------------------------------------------|
   Shoulda bought.. way back, this is great

e|---------5---------------4---------------1--------5~-----------|-------|
B|-----6-------6-------5-------5-------1-------1----5~-----------|-------|
G|---7---7---7---7---4---4---4---5---2---2---2---2--5~-----------|-5-7-8-|
D|-7---------------6---------------3----------------7~-----------|-x-x-x-|
A|---------------------------------------------------------------|-3-5-6-|
E|---------------------------------------------------------------|-------|
   Seeing through..eyes of the...      while my baby... You know

  CHORUS
Repeat the pattern of the last line of the pre-chorus but with these chords:

Dm                     Am
Tic-tac-toe tags, high heels and latex, body bags
Cm                     Gm
No more French maid or naughty nurse
Dm                        Am
She wants to go for a ride all the time
Cm                             Gm
My ghoulfriend gets horny in a hearse

  OUTRO

e|-8888-8--------5555-5--------5~--8~---7-5---------7p5------|
B|-8888-8--------5555-5--------5~--8~---5-------5---5--------|
G|-7777-7--7-9---5555-5--7-9---5~--8~---5-----5---5-5--------|
D|---------7-9-----------7-9---7~--10~--7---7----------------|
A|---------5-7-----------5-7---------------------------------|
E|-----------------------------------------------------------|

RIFF
VERSE
PRE-CHORUS
CHORUS
RIFF
VERSE
PRE-CHORUS
CHORUS
RIFF
PRE-CHORUS
CHORUS
OUTRO

************************************

| /   slide up
| \   slide down
| h   hammer-on
| p   pull-off
| ~   vibrato
| +   harmonic
| x   Mute note
| b   Bend
| pb  Pre-bend
| br  Bend release
| pbr Pre-bend release
| brb Bend release bend

************************************





Comments


Popular Nekromantix tabs & chords
Nekrofelia 1 Bass Tabs
Nice Day For A Resurrection Bass Tabs
Sea Of Res Chords
Alive Intro Tabs
Black Wedding 1 Tabs
Haunted Cathouse Tabs
My Girl Tabs
Who Killed The Cheerleader (Intro) Tabs
Who Killed The Cheerleader 2 Tabs
Nekrofelia Ukulele


Song lyrics



↑ Back to top | Tablatures and chords are parodies/interpretations of the original songs. You may use it for private study, scholarship, research or language learning purposes only
© 2014 AZChords.com Contact us | Privacy policy | DMCA | Add/correct tabs | Request tabs | Top 50 tabs