» » »

Gargoyles Over Copenhagen Bass tabs (ver.1)

Artists:  A B C D E F G H I J K L M N O P Q R S T U V W X Y Z # 

Gargoyles Over Copenhagen Bass tabs (ver.1)

Nekromantix
Rating:
0/5 (0 votes)

Hard to play? Try these video lessons and learn fast.
                Intro
G|-----------------------------------------------------------------|
D|---------------------------------1-1-1-1-1-1-1-1---------3-3-3-3-|
A|-3-3-3-3-3-3-3-3-1-1-1-1-1-1-1-1---------------------------------|
E|-------------------------------------------------4-4-4-4---------|

G|---------------------------0-3-0---0-3-0-----------------|
D|-----------0-3-0---0-3-0-1-------1-----------------------|
A|-3-3-3-3-1-------1---------------------------------------|
E|--3-3-3-3--------------------------------4-4-4-4-1-1-1-1-|

Verse
G|-------------------------------------|
D|------------------1-1-1-1------------|
A|-3-3-3-3-1-1-1-1---1-1-1-1-----------|
E|--3-3-3-3-1-1-1-1----------4444-1111-|

Chorus
G|----------------0-3-0-------0-3-0---0-3-0-----------|
D|------------0-3-------3-0-1-------1-----------------|
A|-33333333-1-----------------------------------------|
E|------------------------------------------4444-1111-|

Bridge/solo
G|-----0-2-|-----|
D|-0-3-----|-3-5-|
A|---------|-----|
E|---------|-----|

Ending
G|-----3-------3---------------------0-3-0---0-3-0------------------|
D|---5---5---5---5---0-1-3---0-3-0-1-------1-----------------7-8-10-|
A|-3-------3-------1-------1-------------------------3-4-6-8--------|
E|-------------------------------------------------4----------------|

G|-5-5-5-5-3-3-3-3----------8-----------------|
D|--5-5-5-5-3-3-3-3---5-6-8---8-6-5-----------|
A|------------------6-------------------------|
E|----------------------------------4444-1111-|
            
Hard to play? Try these video lessons and learn fast. | Correct




comments powered by Disqus
↑ Back to top | Tablatures and chords are parodies/interpretations of the original songs. You may use it for private study, scholarship, research or language learning purposes only