>
 >
Brain Error

Brain Error Guitar Tabs

Nekromantix - Brain Error chords, tabs, tablatures, lyrics

Guitar lessons | Add/correct | Request | Top 50 tabs Artists:  A B C D E F G H I J K L M N O P Q R S T U V W X Y Z 0-9

Brain Error Guitar Tabs – Nekromantix

CD, Sheet music, Poster

Do you like Brain Error? Share with your friends now
Tabs
BRAIN ERROR

Intro/Verse:


   Cm   Ab   F7   Ab       Fm   Db   Bb7  Db     Cm   Ab   F7   Ab
E|--8----8----8---8----||--8----9----10---9---|--8----8----8----8---|
B|--8----9----10--9----||--10---10---10---10--|--8----9----10---9---|
G|.-8----8----8---8---.||--9----9----9----9---|--8----8----8----8---|
D|.-------------------.||---------------------|---------------------|
A|---------------------||---------------------|---------------------|
E|---------------------||---------------------|---------------------|


Chorus:

   G                   F           Eb        C5         C5 
E|-------------------|------------------||-----------------------||
B|-------------------|------------------||-----------------------||
G|-------------------|-------------8\---||.-/5-5-5-5---/5-5-5-5-.||
D|-5-5-5-5-5-5-5-5/8-|-3-3-3/53---8\---||.-/5-5-5-5---/5-5-5-5-.||
A|-5-5-5-5-5-5-5-5/8-|-3-3-3/53---6\---||--/3-3-3-3---/3-3-3-3--||
E|-3-3-3-3-3-3-3-3/6-|-1-1-1/3--1-------||-----------------------||


Cm                    Ab           F7       Ab 
  He was born with an error in his brain
     Cm                       Ab                F7    Ab 
Some people call him mad some people call him insane
  Fm           Db               Bb7     Db  
A little devil lives inside his head
       Cm           Ab                             F7     Ab 
He can only be satisfied by the sight of blood and death


C5                                          Eb
  He was born with an error in his brain



He was only 9 when he brought his first knife
And that the end of his brothers life
He killed his sister because she called him mad
2 years later he killed his mom and dad 





Comments


Popular Nekromantix tabs & chords
Gargoyles Over Copenhagen Bass Tabs
Last Night I Saved An Angel 1 Bass Tabs
Nice Day For A Resurrection Bass Tabs
Back From The Grave Intro Tabs
Black Wedding 1 Tabs
Life Is A Grave And I Dig It Intro Tabs
Save My Grave Tabs
Who Killed The Cheerleader (Intro Ver 2) Tabs
Who Killed The Cheerleader 2 Tabs
Who Killed The Cheerleader Intro 1 Tabs


Song lyrics



↑ Back to top | Tablatures and chords are parodies/interpretations of the original songs. You may use it for private study, scholarship, research or language learning purposes only
© 2014 AZChords.com Contact us | Privacy policy | DMCA | Add/correct tabs | Request tabs | Top 50 tabs