>
 >
In The Hall Of The Goblin King

In The Hall Of The Goblin King Guitar Tabs

Nekrogoblikon - In The Hall Of The Goblin King chords, tabs, tablatures, lyrics

Guitar lessons | Add/correct | Request | Top 50 tabs Artists:  A B C D E F G H I J K L M N O P Q R S T U V W X Y Z 0-9

In The Hall Of The Goblin King Guitar Tabs – Nekrogoblikon

CD, Sheet music, Poster

Do you like In The Hall Of The Goblin King? Share with your friends now
Tabs

IN THE HALL OF THE GOBLIN KING
As recorded by Nekrogoblikon
(From the 2006 Album GOBLIN ISLAND)

	

Words by Tim Lyakhovetskiy & Nicholas Calonne Music by Nicholas Calonne & Tim Lyakhovetskiy
Arranged by Tim Lyakhovetskiy & Nicholas Calonne

Gtr I (B E A D G B E) - 'Untitled'
Gtr II (B E A D G B E) - 'Untitled'
Gtr III (B E A D G B E) - 'Untitled'
Gtr IV (B E A D G B E) - 'Untitled'
Gtr V (B E A D G B E) - 'Untitled'

   Intro
    Q=190
    Gtr I
    E E E E E E E E   E E E E E E E E
||------------------|-----------------|
||------------------|-----------------|
||o-----------------|-----------------|
||--2-------2-------|-2-------2-------|
||o-2-------2-------|-2-------2-------|
||--0-0-0-0-0-0-0-0-|-0-0-0-0-0-0-0-0-|
||------------------|-----------------|
|
|   Gtr II
|   E E E E E E E E   E E E E E E E E
||------------------|-----------------|
||------------------|-----------------|
||o-----------------|-----------------|
||--9-------9-------|-9-------9-------|
||o-7-------7-------|-7-------7-------|
||--0-0-0-0-0-0-0-0-|-0-0-0-0-0-0-0-0-|
||------------------|-----------------|
|
|   Gtr III
|   E E E E E E E E   E E E E E E E E
||------------------|-----------------|
||--8-7-8-5-8-7-8-5-|-8-7-8-5-8-7-8-5-|
||o-----------------|-----------------|
||--2-------2-------|-2-------2-------|
||o-----------------|-----------------|
||--0-------0-------|-0-------0-------|
||------------------|-----------------|


   E  E  E E  E  E  E E    E  E  E  E  E  E  E  E
|-----------------------|---------------------------||
|-----------------------|---------------------------||
|-----------------------|--------------------------o||
|--5----------5---------|--7------------------------||
|--5----------5---------|--7-----------------------o||
|--3--3--3-3--3--3--3-3-|--5--5--5--5--8--7--8--5---||
|-----------------------|---------------------------||
|
|  E  E  E E  E  E  E E    E  E  E  E  E  E  E  E
|-----------------------|---------------------------||
|-----------------------|---------------------------||
|-----------------------|--------------------------o||
|-12---------12---------|-14------------------------||
|-10---------10---------|-12-----------7--5--7-----o||
|-----------------------|-----------------------8---||
|-----8--8-8-----8--8-8-|----10-10-10---------------||
|
|  E  E  E E  E  E  E E    E  E  E  E  E  E  E  E
|-----------------------|---------------------------||
|-12-10-12-8-12-10-12-8-|-13-12-13-10-13-12-13-10---||
|-----------------------|--------------------------o||
|--5----------5---------|--7-----------7------------||
|-----------------------|--------------------------o||
|--3----------3---------|--5-----------5------------||
|-----------------------|---------------------------||


    E E E E E E E E   E E E E E E E E
||------------------|-----------------|
||------------------|-----------------|
||o-----------------|-----------------|
||------------------|-----------------|
||o-----------------|-----------------|
||--0-0-0-0-0-0-0-0-|-0-0-0-0-0-0-0-0-|
||------------------|-----------------|
|
|   E E E E E E E E   E E E E E E E E
||------------------|-----------------|
||------------------|-----------------|
||o-----------------|-----------------|
||------------------|-----------------|
||o-7-7-7-7-7-7-7-7-|-7-7-7-7-7-7-7-7-|
||------------------|-----------------|
||------------------|-----------------|
|
|   E E E E E E E E   E E E E E E E E
||------------------|-----------------|
||--8-7-8-5-8-7-8-5-|-8-7-8-5-8-7-8-5-|
||o-----------------|-----------------|
||--2-------2-------|-2-------2-------|
||o-----------------|-----------------|
||--0-------0-------|-0-------0-------|
||------------------|-----------------|


   E  E  E  E  E  E  E  E    E  E  E  E  E  E  E  E
|-------------------------|---------------------------||
|-------------------------|---------------------------||
|-------------------------|--------------------------o||
|-------------------------|---------------------------||
|-------------------------|--------------------------o||
|--3--3--3--3--3--3--3--3-|--5--5--5--5--8--7--8--5---||
|-------------------------|---------------------------||
|
|  E  E  E  E  E  E  E  E    E  E  E  E  E  E  E  E
|-------------------------|---------------------------||
|-------------------------|---------------------------||
|-------------------------|--------------------------o||
|-------------------------|--7--7--7--7---------------||
|-10-10-10-10-10-10-10-10-|--------------7--5--7-----o||
|-------------------------|-----------------------8---||
|-------------------------|---------------------------||
|
|  E  E  E  E  E  E  E  E    E  E  E  E  E  E  E  E
|-------------------------|---------------------------||
|-12-10-12--8-12-10-12--8-|-13-12-13-10-13-12-13-10---||
|-------------------------|--------------------------o||
|--5-----------5----------|--7-----------7------------||
|-------------------------|--------------------------o||
|--3-----------3----------|--5-----------5------------||
|-------------------------|---------------------------||


   Verse
    E E E E E E E E   E E E E E E E E   E E E E E E E E   E E E E E E E E
||------------------|-----------------|-----------------|------------------||
||------------------|-----------------|-----------------|------------------||
||o-----------------|-----------------|-----------------|-----------------o||
||------------------|-----------------|-----------------|------------------||
||o-5---4-------5p4-|-------5---4-----|-7---5---4---5h7-|---9---7---5-----o||
||----------7-------|---7-------------|-----------------|-0---0---0---0-0--||
||----0---0---0-----|-0---0---0---0-0-|---3---3---3-----|------------------||
|
|   E E E E E E E E   E E E E E E E E   E E E E E E E E   E E E E E E E E
||------------------|-----------------|-----------------|------------------||
||------------------|-----------------|-----------------|------------------||
||o-----------------|-----------------|-----------------|-----------------o||
||------------------|-----------------|-----------------|------------------||
||o-5---4-------5p4-|-------5---4-----|-7---5---4---5h7-|---9---7---5-----o||
||----------7-------|---7-------------|-----------------|-0---0---0---0-0--||
||----0---0---0-----|-0---0---0---0-0-|---3---3---3-----|------------------||


    E E E E  E E E E   E  E E E E E E E   E E E E E E E E   E E E  E E E E E
||-------------------|------------------|-----------------|-------------------||
||-------------------|------------------|-----------------|-------------------||
||o------------------|------------------|-----------------|------------------o||
||-------------------|------------------|-----------------|-------------------||
||o-5---4--------5p4-|--------5---4-----|-7---5---4---5h7-|---9----7---5-----o||
||-----------7-------|----7-------------|-----------------|-0---0----0---0-0--||
||----0---0----0-----|-0----0---0---0-0-|---3---3---3-----|-------------------||
|
|   E E E E  E E E E   E  E E E E E E E   E E E E E E E E   E E E  E E E E E
||-------------------|------------------|-----------------|-------------------||
||-------------------|------------------|-----------------|-------------------||
||o------------------|------------------|-----------------|------------------o||
||-------------------|------------------|-5---4-------4h5-|---7---------------||
||o-9---7--------9p7-|--------9---7-----|---------7-------|-------10---9-----o||
||----------10-------|---10-------------|-----------------|-0---0----0---0-0--||
||----0---0----0-----|-0----0---0---0-0-|---3---3---3-----|-------------------||


   Pre-Chorus
    Q  Q   Q  E E   E  Q  q  Q.      Q  Q  Q  E E   +E   E E  q  Q.
||----------------|---------------|---------------|--------------------||
||----------------|---------------|---------------|--------------------||
||o---------------|---------------|---------------|-------------------o||
||----------------|---------------|-------------4-|-(4)----------------||
||o-5--4------5-4-|-------5--4----|--7--5--4--5---|------7-5--7--5----o||
||---------7------|----7----------|---------------|--------------------||
||----------------|---------------|---------------|--------------------||
|
|   Q  Q   Q  E E   E  Q  q  Q.      Q  Q  Q  E E   +E   E E  q  Q.
||----------------|---------------|---------------|--------------------||
||----------------|---------------|---------------|--------------------||
||o---------------|---------------|---------------|-------------------o||
||----------------|---------------|-------------7-|-(7)----------------||
||o-9--7------9-7-|-------9--7----|-10--9--7--9---|-----10-9-10--9----o||
||--------10------|---10----------|---------------|--------------------||
||----------------|---------------|---------------|--------------------||
|
|   Gtr IV
|   q  q   Q  E E   E  Q  Q  Q.      q  q  Q  E E    E   E E  q  Q.
||----------------|---------------|---------------|--------------------||
||----------------|---------------|---------------|--------------------||
||o---------------|---------------|---------------|-------------------o||
||----------------|---------------|---------------|--------------------||
||o--------2------|----2-----4----|--------4------|--------------5----o||
||--2--2---2------|----2--2--4----|--5--5--4------|--------------5-----||
||--0--0---0--3-2-|----0--0--2----|--3--3--2--2-3-|------5-3--5--3-----||


   Chorus
   4/4
    Gtrs I, II
    Q  E E Q  E E   Q  E E Q  E E   Q  E E Q  E E   Q  E E Q  E E
||----------------|---------------|---------------|----------------|
||----------------|---------------|---------------|----------------|
||o---------------|---------------|---------------|----------------|
||--2------2------|-2------2------|---------------|----------------|
||o-2--2-2-2--2-2-|-2--2-2-2--2-2-|-2------2------|-2------2-------|
||--0--0-0-0--0-0-|-0--0-0-0--0-0-|-2--2-2-2--2-2-|-2--2-2-2--2-2--|
||----------------|---------------|-0--0-0-0--0-0-|-0--0-0-0--0-0--|


  Q  E E Q  E E   Q  E E Q  E E   Q  E E Q  E E   Q  E E E E E E
|---------------|---------------|---------------|------------------||
|---------------|---------------|---------------|------------------||
|---------------|---------------|---------------|--------2-4-2----o||
|---------------|---------------|-4------4------|-4------4-5-4-5---||
|-5------5------|-5------5------|-4--4-4-4--4-4-|-4--4-4-------7--o||
|-5--5-5-5--5-5-|-5--5-5-5--5-5-|-2--2-2-2--2-2-|-2--2-2-----------||
|-3--3-3-3--3-3-|-3--3-3-3--3-3-|---------------|------------------||


   Bridge
    Gtr I
    Q  E E E E E E   E E E E E E E E   Q  E E E E E E   E S S E E E S S E E   4x
||-----------------|-----------------|----------------|-----------------------||
||-----------------|-----------------|----------------|-----------------------||
||o----------------|-----------------|----------------|----------------------o||
||-----------------|-----------------|----------------|-8-------8-7-------7---||
||o-5--------------|---7-5-3-5---3---|-8--------------|-8-------8-7-------7--o||
||--5--------------|-----------7---5-|-8--------------|-6-6-6-6-6-5-5-5-5-5---||
||--3--3-3-3-3-3-3-|-3---------------|-6--6-6-6-6-6-6-|-----------------------||
|
|   Gtr II
|   Q  E E E E E E   E E E E E E E E   Q  E E E E E E   E S S E E E S S E E   4x
||-----------------|-----------------|----------------|-----------------------||
||-----------------|-----------------|----------------|-----------------------||
||o----------------|-----------------|----------------|----------------------o||
||-----------------|---5-3-2-3---2---|----------------|-8-------8-7-------7---||
||o-5--------------|-----------5---3-|-8--------------|-8-------8-7-------7--o||
||--5--------------|-----------------|-8--------------|-6-6-6-6-6-5-5-5-5-5---||
||--3--3-3-3-3-3-3-|-3---------------|-6--6-6-6-6-6-6-|-----------------------||


 KILL!
  E H..
|----------|
|----------|
|----------|
|-7--------|
|-7--------|
|-5--------|
|----------|
|
| E H..
|----------|
|----------|
|----------|
|-7--------|
|-7--------|
|-5--------|
|----------|


   Baroque Break
     E  E  E  E  E  E  E  E    E  E E  E  E  E E  E
||--------------------------|-----------------------|
||--------------------------|-----------------------|
||o-------------10-14-12-14-|-10-14-9-14----14-9-14-|
||--12-11-12-14-------------|------------12---------|
||o-------------------------|-----------------------|
||--------------------------|-----------------------|
||--------------------------|-----------------------|
|
|    Q     E  E  E  E  E  E    E  E E  E  E  E E  E
||--------------------------|-----------------------|
||--------------------------|-----------------------|
||o-------------------------|-----------------------|
||--------------------------|-----5-3--2--3----2----|
||o--5----------------------|-----7-5--3--5--5-3--3-|
||---5----------------------|----------------7----5-|
||---3-----3--3--3--3--3--3-|--3--------------------|
|
|    E  E  E  E  E  E  E  E    E  E E  E  E  E E  E
||--------------------------|-----------------------|
||--------------------------|-----------------------|
||o-------------10-14-12-14-|-10-14-9-14----14-9-14-|
||--12-11-12-14-------------|------------12---------|
||o-------------------------|-----------------------|
||--------------------------|-----------------------|
||--------------------------|-----------------------|


   E  E  E  E  E  E  E  E    E  E    E  E  E  E    E  E
|-------------------------|-------------------------------||
|-------------------------|-------------------------------||
|-------------10-14-12-14-|----14---12-14----14---12-14--o||
|-12-11-12-14-------------|-12------------11--------------||
|-------------------------|------------------------------o||
|-------------------------|-------------------------------||
|-------------------------|-------------------------------||
|
|  Q     E  E  E  E  E  E    E  S S  E  E  E  S S  E  E
|-------------------------|-------------------------------||
|-------------------------|-------------------------------||
|-------------------------|------------------------------o||
|-------------------------|--8----------8--7----------7---||
|--8----------------------|--8----------8--7----------7--o||
|--8----------------------|--6--6-6--6--6--5--5-5--5--5---||
|--6-----6--6--6--6--6--6-|-------------------------------||
|
|  E  E  E  E  E  E  E  E    E  E    E  E  E  E    E  E
|-------------------------|-------------------------------||
|-------------------------|-------------------------------||
|-------------10-14-12-14-|----14---12-14----14---12-14--o||
|-12-11-12-14-------------|-12------------11--------------||
|-------------------------|------------------------------o||
|-------------------------|-------------------------------||
|-------------------------|-------------------------------||


     E  E  E  E  E  E  E  E    E  E  E  E  E  E  E  E
||--------------13-17-15-17-|-13-17-12-17----17-12-17-|
||--15-14-15-17-------------|-------------15----------|
||o-------------------------|-------------------------|
||--------------------------|-------------------------|
||o-------------------------|-------------------------|
||--------------------------|-------------------------|
||--------------------------|-------------------------|
|
|    Q     E  E  E  E  E  E    E  E  E  E  E  E  E  E
||--------------------------|-------------------------|
||--------------------------|-------------------------|
||o-------------------------|-------------------------|
||--------------------------|-----5--3--2--3-----2----|
||o--5----------------------|-----7--5--3--5--5--3--3-|
||---5----------------------|-----------------7-----5-|
||---3-----3--3--3--3--3--3-|--3----------------------|
|
|    E  E  E  E  E  E  E  E    E  E  E  E  E  E  E  E
||--------------------------|-------------------------|
||--------------------------|-------------------------|
||o-------------10-14-12-14-|-10-14--9-14----14--9-14-|
||--12-11-12-14-------------|-------------12----------|
||o-------------------------|-------------------------|
||--------------------------|-------------------------|
||--------------------------|-------------------------|


   E  E  E  E  E  E  E  E    E  E    E  E  E  E    E  E      W
|-------------13-17-15-17-|----17---15-17----17---15-17--||-------|
|-15-14-15-17-------------|-15------------14-------------||-15----|
|-------------------------|-----------------------------o||-------|
|-------------------------|------------------------------||-------|
|-------------------------|-----------------------------o||-------|
|-------------------------|------------------------------||-------|
|-------------------------|------------------------------||-------|
|
|  Q     E  E  E  E  E  E    E  S S  E  E  E  S S  E  E      W
|-------------------------|------------------------------||-------|
|-------------------------|------------------------------||-------|
|-------------------------|-----------------------------o||-------|
|-------------------------|--8----------8--7----------7--||-------|
|--8----------------------|--8----------8--7----------7-o||--5----|
|--8----------------------|--6--6-6--6--6--5--5-5--5--5--||--5----|
|--6-----6--6--6--6--6--6-|------------------------------||--3----|
|
|  E  E  E  E  E  E  E  E    E  E    E  E  E  E    E  E      W
|-------------------------|------------------------------||-------|
|-------------------------|------------------------------||-------|
|-------------10-14-12-14-|----14---12-14----14---12-14-o||-------|
|-12-11-12-14-------------|-12------------11-------------||-12----|
|-------------------------|-----------------------------o||-------|
|-------------------------|------------------------------||-------|
|-------------------------|------------------------------||-------|


   Verse
    E E E E  E E E E   E  E E E E E E E
||-------------------|------------------|
||-------------------|------------------|
||o------------------|------------------|
||-------------------|------------------|
||o-5---4--------5p4-|--------5---4-----|
||-----------7-------|----7-------------|
||----0---0----0-----|-0----0---0---0-0-|
|
|   E E E E  E E E E   E  E E E E E E E
||-------------------|------------------|
||-------------------|------------------|
||o------------------|------------------|
||-------------------|------------------|
||o-9---7--------9p7-|--------9---7-----|
||----------10-------|---10-------------|
||----0---0----0-----|-0----0---0---0-0-|


  E E E E E E E E   E E E  E E E E E   4x
|-----------------|--------------------||
|-----------------|--------------------||
|-----------------|-------------------o||
|-----------------|--------------------||
|-7---5---4---5h7-|---9----7---5------o||
|-----------------|-0---0----0---0-0---||
|---3---3---3-----|--------------------||
|
| E E E E E E E E   E E E  E E E E E   4x
|-----------------|--------------------||
|-----------------|--------------------||
|-----------------|-------------------o||
|-5---4-------4h5-|---7----------------||
|---------7-------|-------10---9------o||
|-----------------|-0---0----0---0-0---||
|---3---3---3-----|--------------------||


   Pre-Chorus
    Q  Q   Q  E E   E  Q  q  Q.      Q  Q  Q  E E   +E   E E  q  Q.
||----------------|---------------|---------------|--------------------||
||----------------|---------------|---------------|--------------------||
||o---------------|---------------|---------------|-------------------o||
||----------------|---------------|-------------4-|-(4)----------------||
||o-5--4------5-4-|-------5--4----|--7--5--4--5---|------7-5--7--5----o||
||---------7------|----7----------|---------------|--------------------||
||----------------|---------------|---------------|--------------------||
|
|   Q  Q   Q  E E   E  Q  q  Q.      Q  Q  Q  E E   +E   E E  q  Q.
||----------------|---------------|---------------|--------------------||
||----------------|---------------|---------------|--------------------||
||o---------------|---------------|---------------|-------------------o||
||----------------|---------------|-------------7-|-(7)----------------||
||o-9--7------9-7-|-------9--7----|-10--9--7--9---|-----10-9-10--9----o||
||--------10------|---10----------|---------------|--------------------||
||----------------|---------------|---------------|--------------------||
|
|   Gtr IV
|   q  q   Q  E E   E  Q  Q  Q.      q  q  Q  E E    E   E E  q  Q.
||----------------|---------------|---------------|--------------------||
||----------------|---------------|---------------|--------------------||
||o---------------|---------------|---------------|-------------------o||
||----------------|---------------|---------------|--------------------||
||o--------2------|----2-----4----|--------4------|--------------5----o||
||--2--2---2------|----2--2--4----|--5--5--4------|--------------5-----||
||--0--0---0--3-2-|----0--0--2----|--3--3--2--2-3-|------5-3--5--3-----||


   Chorus
   4/4
    Gtrs I, II
    Q  E E Q  E E   Q  E E Q  E E   Q  E E Q  E E   Q  E E Q  E E
||----------------|---------------|---------------|----------------|
||----------------|---------------|---------------|----------------|
||o---------------|---------------|---------------|----------------|
||--2------2------|-2------2------|---------------|----------------|
||o-2--2-2-2--2-2-|-2--2-2-2--2-2-|-2------2------|-2------2-------|
||--0--0-0-0--0-0-|-0--0-0-0--0-0-|-2--2-2-2--2-2-|-2--2-2-2--2-2--|
||----------------|---------------|-0--0-0-0--0-0-|-0--0-0-0--0-0--|


  Q  E E Q  E E   Q  E E Q  E E   Q  E E Q  E E   Q  E E E E E E
|---------------|---------------|---------------|------------------||
|---------------|---------------|---------------|------------------||
|---------------|---------------|---------------|--------2-4-2----o||
|---------------|---------------|-4------4------|-4------4-5-4-5---||
|-5------5------|-5------5------|-4--4-4-4--4-4-|-4--4-4-------7--o||
|-5--5-5-5--5-5-|-5--5-5-5--5-5-|-2--2-2-2--2-2-|-2--2-2-----------||
|-3--3-3-3--3-3-|-3--3-3-3--3-3-|---------------|------------------||


   DIE Bridge
    Gtrs I, II
    q  E E q  E E   q  E E E E E E   q  E E q  E E   q  E E E E E E
||----------------|----------------|---------------|-----------------||
||----------------|----------------|---------------|-----------------||
||o---------------|----------------|---------------|----------------o||
||----------------|----------------|-5------5------|-7---------------||
||o-2------2------|-2--------------|-5------5------|-7--------4-5-4-o||
||--2------2------|-2--------------|-3--3-3-3--3-3-|-5--5-5-5--------||
||--0--0-0-0--0-0-|-0--0-0-0-0-0-0-|---------------|-----------------||


 Prog Interlude/Buildup
  Gtr I
   q     E  E  q     E  E    q     E  E  E  E  E  E
|-------------------------|-------------------------|
|-------------------------|-------------------------|
|-------------------------|-------------------------|
|-------------------------|-------------------------|
|--2-----------2----------|--2----------------------|
|--2-----------2----------|--2----------------------|
|--0-----0--0--0-----0--0-|--0-----0--0--0--0--0--0-|
|
| Gtr V
|  E  E  E  E  E  E  E  E    E  E  E  E  E  E  E  E
|-------------------------|-------------------------|
|-12----------12----------|-12----------12----------|
|----11----------11-------|----11----------11-------|
|-------12----------12----|-------12----------12----|
|----------14----------14-|----------14----------14-|
|-------------------------|-------------------------|
|-------------------------|-------------------------|
|
| Gtr II
|  W                         E  E  E  E  E  E  E  E
|-------------------------|-------------------------|
|-------------------------|-------------------------|
|-------------------------|--------9----11--9-12-11-|
|--9----------------------|-12-11----12-------------|
|-------------------------|-------------------------|
|-------------------------|-------------------------|
|-------------------------|-------------------------|


   q   E  E q   E  E    q     E  E  E  E  E  E
|--------------------|--------------------------|
|--------------------|--------------------------|
|--------------------|--------------------------|
|--5--------5--------|--7-----------------------|
|--5--------5--------|--7--------------4--5--4--|
|--3---3--3-3---3--3-|--5-----5--5--5-----------|
|--------------------|--------------------------|
|
|  E E E  E E E E  E    E  E  E  E  E  E  E  E
|--------------------|--------------------------|
|--8--------8--------|-10----------10-----------|
|----7--------7------|-----9-----------9--------|
|------9--------9----|-------11----------11-----|
|--------10-------10-|----------12----------12--|
|--------------------|--------------------------|
|--------------------|--------------------------|
|
|  W                    E  E  E  E  E  E  E  E
|--------------------|--------------------------|
|--------------------|--------------------------|
|--------------------|--------------------------|
|--------------------|----11--9-11-12-11--9-11--|
|-10-----------------|-12-----------------------|
|--------------------|--------------------------|
|--------------------|--------------------------|


   q     E  E  q     E  E    q     E  E  E  E  E  E
|-------------------------|-------------------------|
|-------------------------|-------------------------|
|-------------------------|-------------------------|
|-------------------------|-------------------------|
|--2-----------2----------|--2----------------------|
|--2-----------2----------|--2----------------------|
|--0-----0--0--0-----0--0-|--0-----0--0--0--0--0--0-|
|
| Gtr V
|  E  E  E  E  E  E  E  E    E  E  E  E  E  E  E  E
|-------------------------|-------------------------|
|-12----------12----------|-12----------12----------|
|----11----------11-------|----11----------11-------|
|-------12----------12----|-------12----------12----|
|----------14----------14-|----------14----------14-|
|-------------------------|-------------------------|
|-------------------------|-------------------------|
|
| Gtr II
|  W                         E  E  E  E  E  E  E  E
|-------------------------|-------------------------|
|-------------------------|-------------------------|
|-------------------------|--------9----11--9-12-11-|
|--9----------------------|-12-11----12-------------|
|-------------------------|-------------------------|
|-------------------------|-------------------------|
|-------------------------|-------------------------|


   q   E  E q   E  E    q     E  E  E  E  E  E
|--------------------|--------------------------|
|--------------------|--------------------------|
|--------------------|--------------------------|
|--5--------5--------|--7-----------------------|
|--5--------5--------|--7--------------4--5--4--|
|--3---3--3-3---3--3-|--5-----5--5--5-----------|
|--------------------|--------------------------|
|
|  E E E  E E E E  E    E  E  E  E  E  E  E  E
|--------------------|--------------------------|
|--8--------8--------|-10----------10-----------|
|----7--------7------|-----9-----------9--------|
|------9--------9----|-------11----------11-----|
|--------10-------10-|----------12----------12--|
|--------------------|--------------------------|
|--------------------|--------------------------|
|
|  W                    E  E  E  E  E  E  E  E
|--------------------|--------------------------|
|--------------------|--------------------------|
|-12-----------------|--------------------------|
|--------------------|----11--9-11-12-11--9-11--|
|--------------------|-12-----------------------|
|--------------------|--------------------------|
|--------------------|--------------------------|


  Gtr I
   W                         E  E  E  E  E  E  E  E
|-------------------------|-------------------------|
|-------------------------|-------------------------|
|-------------------------|--------9----11--9-12-11-|
|--9----------------------|-12-11----12-------------|
|-------------------------|-------------------------|
|-------------------------|-------------------------|
|-------------------------|-------------------------|
|
| Gtr V
|  E  E  E  E  E  E  E  E    E  E  E  E  E  E  E  E
|-------------------------|-------------------------|
|-12----------12----------|-12----------12----------|
|----11----------11-------|----11----------11-------|
|-------12----------12----|-------12----------12----|
|----------14----------14-|----------14----------14-|
|-------------------------|-------------------------|
|-------------------------|-------------------------|
|
| Gtr II
|  W                         E  E  E  E  E  E  E  E
|-------------------------|-------------------------|
|-------------------------|-------------10----12-10-|
|-------------------------|-11--9-12-11----12-------|
|-12----------------------|-------------------------|
|-------------------------|-------------------------|
|-------------------------|-------------------------|
|-------------------------|-------------------------|


   W                    E  E  E  E  E  E  E  E
|--------------------|--------------------------|
|--------------------|--------------------------|
|--------------------|--------------------------|
|--------------------|----11--9-11-12-11--9-11--|
|-10-----------------|-12-----------------------|
|--------------------|--------------------------|
|--------------------|--------------------------|
|
|  E E E  E E E E  E    E  E  E  E  E  E  E  E
|--------------------|--------------------------|
|--8--------8--------|-10----------10-----------|
|----7--------7------|-----9-----------9--------|
|------9--------9----|-------11----------11-----|
|--------10-------10-|----------12----------12--|
|--------------------|--------------------------|
|--------------------|--------------------------|
|
|  W                    E  E  E  E  E  E  E  E
|--------------------|--------------------------|
|--------------------|--------------------------|
|--------------------|-----9-----9-11--9-----9--|
|--9-----------------|-11----12----------12-----|
|--------------------|--------------------------|
|--------------------|--------------------------|
|--------------------|--------------------------|


   W                         E  E  E  E  E  E  E  E
|-------------------------|-------------------------|
|-------------------------|-------------------------|
|-------------------------|--------9----11--9-12-11-|
|--9----------------------|-12-11----12-------------|
|-------------------------|-------------------------|
|-------------------------|-------------------------|
|-------------------------|-------------------------|
|
| Gtr V
|  E  E  E  E  E  E  E  E    E  E  E  E  E  E  E  E
|-------------------------|-------------------------|
|-12----------12----------|-12----------12----------|
|----11----------11-------|----11----------11-------|
|-------12----------12----|-------12----------12----|
|----------14----------14-|----------14----------14-|
|-------------------------|-------------------------|
|-------------------------|-------------------------|
|
| Gtr II
|  W                         E  E  E  E  E  E  E  E
|-------------------------|-------------------------|
|-------------------------|-------------10----12-10-|
|-------------------------|-11--9-12-11----12-------|
|-12----------------------|-------------------------|
|-------------------------|-------------------------|
|-------------------------|-------------------------|
|-------------------------|-------------------------|


   W                    E  E  E  E  E  E  E  E
|--------------------|--------------------------|
|--------------------|--------------------------|
|-12-----------------|--------------------------|
|--------------------|----11--9-11-12-11--9-11--|
|--------------------|-12-----------------------|
|--------------------|--------------------------|
|--------------------|--------------------------|
|
|  E E E  E E E E  E    E  E  E  E  E  E  E  E
|--------------------|--------------------------|
|--8--------8--------|-10----------10-----------|
|----7--------7------|-----9-----------9--------|
|------9--------9----|-------11----------11-----|
|--------10-------10-|----------12----------12--|
|--------------------|--------------------------|
|--------------------|--------------------------|
|
|  W                    E  E  E  E  E  E  E  E
|--------------------|--------------------------|
|-12-----------------|--------------------------|
|--------------------|-----9-----9-11--9-----9--|
|--------------------|-11----12----------12-----|
|--------------------|--------------------------|
|--------------------|--------------------------|
|--------------------|--------------------------|


   Bodom Break!
   4/4
    Gtr I
     |-3--| |-3-|  |-3-| |-3--|    |-3-|  |-3-|  |--3--| |--3--|
     E E  E E E E  E E E E  E E    E E E  E E E  E  E  E E  E  E   4x
||------------------------------|----------------------------------||
||------------------------------|----------------------------------||
||o-----------------------------|---------------------------------o||
||------------------------------|------------------------9h10h12---||
||o-----------------------------|----------------9h10h12----------o||
||---0-0--0-0-0-0--0-0-0-0--0-0-|--0-0-0--0-0-0--------------------||
||------------------------------|----------------------------------||
|
|   Gtr II
|    |-3--| |-3-|  |-3-| |-3--|    |-3-|  |-3-|  |--3--| |--3--|
|    E E  E E E E  E E E E  E E    E E E  E E E  E  E  E E  E  E   4x
||------------------------------|----------------------------------||
||------------------------------|----------------------------------||
||o-----------------------------|------------------------7h=9h11--o||
||------------------------------|----------------7h=9h11-----------||
||o-----------------------------|---------------------------------o||
||---0-0--0-0-0-0--0-0-0-0--0-0-|--0-0-0--0-0-0--------------------||
||------------------------------|----------------------------------||
|
|   Gtr III
|    E Q.          E     Q.        E   Q.        H                 4x
||------------------------------|----------------------------------||
||--17------------15------------|-13------------12-----------------||
||o-----------------------------|---------------------------------o||
||------------------------------|----------------------------------||
||o-----------------------------|---------------------------------o||
||------------------------------|----------------------------------||
||------------------------------|----------------------------------||


   4/4
     |-3-| |-3--|  |-3-| |-3--|    |-3-| |-3--|  |-3-| |-3-|
     E E E E  E E  E E E E  E E    E E E E E  E  E E E E E E
||------------------------------|------------------------------||
||------------------------------|------------------------------||
||o-----------------------------|-----------------------------o||
||------------------------------|----------------------0h2h3---||
||o-----------------------------|----------------0h2h3--------o||
||---3-3-3-3--3-3--3-3-3-3--3-3-|--3-3-3-3-3--3----------------||
||------------------------------|------------------------------||
|
|    |-3-| |-3--|  |-3-| |-3--|    |-3-| |-3--|  |-3-| |-3-|
|    E E E E  E E  E E E E  E E    E E E E E  E  E E E E E E
||------------------------------|------------------------------||
||------------------------------|------------------------------||
||o-----------------------------|-----------------------------o||
||------------------------------|----------------------3h5h7---||
||o-----------------------------|----------------3h5h7--------o||
||---3-3-3-3--3-3--3-3-3-3--3-3-|--3-3-3-3-3--3----------------||
||------------------------------|------------------------------||
|
|    E     Q.      E     Q.        E       Q.    H
||------------------------------|------------------------------||
||--20------------18------------|-16------------15-------------||
||o-----------------------------|-----------------------------o||
||------------------------------|------------------------------||
||o-----------------------------|-----------------------------o||
||------------------------------|------------------------------||
||------------------------------|------------------------------||


                                     1.
   4/4
     |--3---| |-3-|  |--3---| |-3-|    |--3---| |-3-|  |--3--| |--3--|
     E E    E E E E  E E    E E E E    E E    E E E E  E  E  E E  E  E
||----------------------------------|-----------------------------------||
||----------------------------------|-----------------------------------||
||o---------------------------------|----------------------------------o||
||----------------------------------|--------------------------9h10-12--||
||o---------------------------------|------------------9h10h12---------o||
||---0-0----0-0-0-0--0-0----0-0-0-0-|--0-0----0-0-0-0-------------------||
||----------------------------------|-----------------------------------||
|
|    |--3---| |-3-|  |--3---| |-3-|    |--3---| |-3-|  |--3--| |--3--|
|    E E    E E E E  E E    E E E E    E E    E E E E  E  E  E E  E  E
||----------------------------------|-----------------------------------||
||----------------------------------|-----------------------------------||
||o---------------------------------|--------------------------7h=9h11-o||
||----------------------------------|------------------7h=9h11----------||
||o---------------------------------|----------------------------------o||
||---0-0----0-0-0-0--0-0----0-0-0-0-|--0-0----0-0-0-0-------------------||
||----------------------------------|-----------------------------------||
|
|   Gtr III
|    E   Q.          E   Q.            E   Q.          H
||----------------------------------|-----------------------------------||
||--17--------------15--------------|-13--------------12----------------||
||o---------------------------------|----------------------------------o||
||----------------------------------|-----------------------------------||
||o---------------------------------|----------------------------------o||
||----------------------------------|-----------------------------------||
||----------------------------------|-----------------------------------||


 2.
   |--3---| |-3-|  |--3--| |--3--|
   E E    E E E E  E  E  E E  E  E   W
|----------------------------------|------|
|----------------------------------|------|
|----------------------------------|------|
|--------------------------9h10h12-|------|
|------------------9h10h12---------|-2----|
|--0-0----0-0-0-0------------------|-2----|
|----------------------------------|-0----|
|
|  |--3---| |-3-|  |--3--| |--3--|
|  E E    E E E E  E  E  E E  E  E   W
|----------------------------------|------|
|----------------------------------|------|
|--------------------------7h=9h11-|------|
|------------------7h=9h11---------|------|
|----------------------------------|-2----|
|--0-0----0-0-0-0------------------|-2----|
|----------------------------------|-0----|
|
|  E   Q.          H                 W
|----------------------------------|------|
|-13--------------12---------------|------|
|----------------------------------|------|
|----------------------------------|------|
|----------------------------------|------|
|----------------------------------|------|
|----------------------------------|------|


   Out-Chorus
   4/4
    Gtrs I, II
    Q  E E Q  E E   Q  E E Q  E E   Q  E E Q  E E   Q  E E Q  E E
||----------------|---------------|---------------|----------------|
||----------------|---------------|---------------|----------------|
||o---------------|---------------|---------------|----------------|
||--2------2------|-2------2------|---------------|----------------|
||o-2--2-2-2--2-2-|-2--2-2-2--2-2-|-2------2------|-2------2-------|
||--0--0-0-0--0-0-|-0--0-0-0--0-0-|-2--2-2-2--2-2-|-2--2-2-2--2-2--|
||----------------|---------------|-0--0-0-0--0-0-|-0--0-0-0--0-0--|


  Q  E E Q  E E   Q  E E Q  E E   Q  E E Q  E E   Q  E E E E E E
|---------------|---------------|---------------|------------------||
|---------------|---------------|---------------|------------------||
|---------------|---------------|---------------|--------2-4-2----o||
|---------------|---------------|-4------4------|-4------4-5-4-5---||
|-5------5------|-5------5------|-4--4-4-4--4-4-|-4--4-4-------7--o||
|-5--5-5-5--5-5-|-5--5-5-5--5-5-|-2--2-2-2--2-2-|-2--2-2-----------||
|-3--3-3-3--3-3-|-3--3-3-3--3-3-|---------------|------------------||


              Goblin King's Wrath
               Q=270
  Wx8          W
|------------|------|
|------------|------|
|------------|------|
|------------|------|
|------------|------|
|------------|------|
|------------|------|


    E E E E E E E E   E E E E E E E E   E E E E E E E E   E E E E E E E E   8x
||------------------|-----------------|-----------------|-------------------||
||------------------|-----------------|-----------------|-------------------||
||o-----------------|-----------------|-----------------|------------------o||
||------------------|-----------------|-----------------|-------------------||
||o-----------------|-----------------|-----------------|------------------o||
||------------------|-----------------|-----------------|-6-6-6-6-5-5-5-5---||
||--3-3-3-3-3-3-3-3-|-3-3-3-3-3-3-3-3-|-6-6-6-6-6-6-6-6-|-------------------||


     E  E  E  E  E  E  E  E    E  E E  E  E  E E  E
||--------------------------|-----------------------|
||--------------------------|-----------------------|
||o-------------10-14-12-14-|-10-14-9-14----14-9-14-|
||--12-11-12-14-------------|------------12---------|
||o-------------------------|-----------------------|
||--------------------------|-----------------------|
||--------------------------|-----------------------|
|
|    E  E  E  E  E  E  E  E    E  E E  E  E  E E  E
||--------------------------|-----------------------|
||--------------------------|-----------------------|
||o-------------------------|-----------------------|
||--------------------------|-----------------------|
||o-------------------------|-----------------------|
||--------------------------|-----------------------|
||---3--3--3--3--3--3--3--3-|--3--3-3--3--3--3-3--3-|
|
|    E  E  E  E  E  E  E  E    E  E E  E  E  E E  E
||--------------------------|-----------------------|
||--------------------------|-----------------------|
||o-------------10-14-12-14-|-10-14-9-14----14-9-14-|
||--12-11-12-14-------------|------------12---------|
||o-------------------------|-----------------------|
||--------------------------|-----------------------|
||--------------------------|-----------------------|


   E  E  E  E  E  E  E  E    E  E  E  E  E  E  E  E
|-------------------------|---------------------------||
|-------------------------|---------------------------||
|-------------10-14-12-14-|----14-12-14----14-12-14--o||
|-12-11-12-14-------------|-12----------11------------||
|-------------------------|--------------------------o||
|-------------------------|---------------------------||
|-------------------------|---------------------------||
|
|  E  E  E  E  E  E  E  E    E  E  E  E  E  E  E  E
|-------------------------|---------------------------||
|-------------------------|---------------------------||
|-------------------------|--------------------------o||
|-------------------------|---------------------------||
|-------------------------|--------------------------o||
|-------------------------|--6--6--6--6--5--5--5--5---||
|--6--6--6--6--6--6--6--6-|---------------------------||
|
|  E  E  E  E  E  E  E  E    E  E  E  E  E  E  E  E
|-------------------------|---------------------------||
|-------------------------|---------------------------||
|-------------10-14-12-14-|----14-12-14----14-12-14--o||
|-12-11-12-14-------------|-12----------11------------||
|-------------------------|--------------------------o||
|-------------------------|---------------------------||
|-------------------------|---------------------------||


     E  E  E  E  E  E  E  E    E  E  E  E  E  E  E  E
||--------------13-17-15-17-|-13-17-12-17----17-12-17-|
||--15-14-15-17-------------|-------------15----------|
||o-------------------------|-------------------------|
||--------------------------|-------------------------|
||o-------------------------|-------------------------|
||--------------------------|-------------------------|
||--------------------------|-------------------------|
|
|    E  E  E  E  E  E  E  E    E  E  E  E  E  E  E  E
||--------------------------|-------------------------|
||--------------------------|-------------------------|
||o-------------------------|-------------------------|
||--------------------------|-------------------------|
||o-------------------------|-------------------------|
||--------------------------|-------------------------|
||---3--3--3--3--3--3--3--3-|--3--3--3--3--3--3--3--3-|
|
|    E  E  E  E  E  E  E  E    E  E  E  E  E  E  E  E
||--------------------------|-------------------------|
||--------------------------|-------------------------|
||o-------------10-14-12-14-|-10-14--9-14----14--9-14-|
||--12-11-12-14-------------|-------------12----------|
||o-------------------------|-------------------------|
||--------------------------|-------------------------|
||--------------------------|-------------------------|


   E  E  E  E  E  E  E  E    E  E  E  E  E  E  E  E
|-------------13-17-15-17-|----17-15-17----17-15-17---||
|-15-14-15-17-------------|-15----------14------------||
|-------------------------|--------------------------o||
|-------------------------|---------------------------||
|-------------------------|--------------------------o||
|-------------------------|---------------------------||
|-------------------------|---------------------------||
|
|  E  E  E  E  E  E  E  E    E  E  E  E  E  E  E  E
|-------------------------|---------------------------||
|-------------------------|---------------------------||
|-------------------------|--------------------------o||
|-------------------------|---------------------------||
|-------------------------|--------------------------o||
|-------------------------|--6--6--6--6--5--5--5--5---||
|--6--6--6--6--6--6--6--6-|---------------------------||
|
|  E  E  E  E  E  E  E  E    E  E  E  E  E  E  E  E
|-------------------------|---------------------------||
|-------------------------|---------------------------||
|-------------10-14-12-14-|----14-12-14----14-12-14--o||
|-12-11-12-14-------------|-12----------11------------||
|-------------------------|--------------------------o||
|-------------------------|---------------------------||
|-------------------------|---------------------------||


   q  H.
|-----------*|
|-15--------*|
|-----------*|
|-----------*|
|-----------*|
|-----------*|
|-----------*|
|
|  q  H.
|-----------*|
|-----------*|
|-----------*|
|-----------*|
|--5--------*|
|--5--------*|
|--3--------*|
|
|  q  H.
|-----------*|
|-----------*|
|-----------*|
|-12--------*|
|-----------*|
|-----------*|
|-----------*|



Duration Legend
---------------
W - whole; H - half; Q - quarter; E - 8th; S - 16th; T - 32nd; X - 64th; a - acciaccatura
+ - note tied to previous; . - note dotted; .. - note double dotted
Uncapitalized letters represent notes that are staccato (1/2 duration)
Irregular groupings are notated above the duration line
Duration letters will always appear directly above the note/fret number it represents the
duration for.  Duration letters with no fret number below them represent rests.  Multi-
bar rests are notated in the form Wxn, where n is the number of bars to rest for.  Low
melody durations appear below the staff

Tablature Legend
----------------
 h   - hammer-on
 p   - pull-off
 b   - bend
 pb  - pre-bend
 r   - bend release (if no number after the r, then release immediately)
 /\  - slide into or out of (from/to "nowhere")
 s   - legato slide
 S   - shift slide
 - natural harmonic
[n]  - artificial harmonic
n(n) - tapped harmonic
 ~   - vibrato
 tr  - trill
 T   - tap
 TP  - trem. picking
 PM  - palm muting
\n/  - tremolo bar dip; n = amount to dip
 \n  - tremolo bar down
 n/  - tremolo bar up
/n\  - tremolo bar inverted dip
 =   - hold bend; also acts as connecting device for hammers/pulls
 <> - volume swell (louder/softer)
 x   - on rhythm slash represents muted slash
 o   - on rhythm slash represents single note slash

Misc Legend
-----------
 |  - bar
||  - double bar
||o - repeat start
o|| - repeat end
*|  - double bar (ending)
 :  - bar (freetime)
 $  - Segno
 &  - Coda
Tempo markers -  = BPM(8/16=s8/s16), where s8 = swing 8ths, s16 = swing 16ths





Comments


Popular Nekrogoblikon tabs & chords
Goblins Are Better Than Trolls Bass Tabs
A Feast Intro Tabs
Army Of Goblins Tabs
Goblin Island Tabs
Goblins Ahoy Tabs


Song lyrics



↑ Back to top | Tablatures and chords are parodies/interpretations of the original songs. You may use it for private study, scholarship, research or language learning purposes only
© 2014 AZChords.com Contact us | Privacy policy | DMCA | Add/correct tabs | Request tabs | Top 50 tabs