>
 >
Goblins Are Better Than Trolls

Goblins Are Better Than Trolls Bass Tabs

Nekrogoblikon - Goblins Are Better Than Trolls chords, tabs, tablatures, lyrics

Guitar lessons | Add/correct | Request | Top 50 tabs Artists:  A B C D E F G H I J K L M N O P Q R S T U V W X Y Z 0-9

Goblins Are Better Than Trolls Bass Tabs – Nekrogoblikon

CD, Sheet music, Poster

Do you like Goblins Are Better Than Trolls? Share with your friends now
Bass Tabs
Artist : Nekrogoblikon
Song   : Goblins are better than Trolls
Album  : Goblin Island






       ************************
       *                      *
       *                      *
       ************************






-Riff 1-
G|----------------|----------------|----------------|
D|----------------|----------------|----------------|
A|----------------|----------------|----------------|
E|2---2-1--2------|--2-1-0---------|----------------| (x6)
B|--------2---2-22|2-------4-3-2-22|2-4-2-222-2-0-0-|



-Chorus- (Goblins are better than trolls!)
G|----------------------------|
D|----------------------------|
A|----------------------------|
E|2--222221--11111------------| (x4)
B|----------------4--444444444|



-Bridge 1-
G|--------------------------------|
D|--------------------------------|
A|--------------------------------|
E|22221111----111122221111----2---| (x2)
B|--------4444------------4444----|

G|--------------------------------|
D|--------------------------------|
A|--------------------------------|
E|------------------2-1-----------| (x2)
B|--------------------------------|
                      .


-Chorus- (x4)


-Riff 2-
G|----------------|----------------|
D|----------------|----------------|
A|----------------|----------------|
E|4---4---4---4---|7---7---2---4---| (x6) not exactly, but I didn't find the last part
B|----------------|----------------|



-Riff 1- (x6)


-Riff 3-
  (1st time only)
G|----------------||----------------|----------------|
D|----------------||----------------|----------------|
A|----------------||----------------|------4-----4---|
E|2-------------X-||2-2-X-1-1-X-----|--4-7---7-4---X-| (x4)
B|----------------||------------4-4-|----------------|


-Riff 1- (x4)


END





Comments


Popular Nekrogoblikon tabs & chords
A Feast Intro Tabs
Army Of Goblins Tabs
Goblin Island Tabs
Goblins Ahoy Tabs
In The Hall Of The Goblin King Tabs


Song lyrics



↑ Back to top | Tablatures and chords are parodies/interpretations of the original songs. You may use it for private study, scholarship, research or language learning purposes only
© 2014 AZChords.com Contact us | Privacy policy | DMCA | Add/correct tabs | Request tabs | Top 50 tabs