>
 >
Goblins Ahoy

Goblins Ahoy Guitar Tabs

Nekrogoblikon - Goblins Ahoy chords, tabs, tablatures, lyrics

Guitar lessons | Add/correct | Request | Top 50 tabs Artists:  A B C D E F G H I J K L M N O P Q R S T U V W X Y Z 0-9

Goblins Ahoy Guitar Tabs – Nekrogoblikon

CD, Sheet music, Poster

Do you like Goblins Ahoy? Share with your friends now
Tabs

GOBLINS AHOY!
As recorded by Nekrogoblikon
(From the 2006 Album GOBLIN ISLAND)

	

Words by Nicholas Calonne Music by Nicholas Calonne and Tim Lyakhovetskiy
Arranged by Nicholas Calonne and Tim Lyakhovetskiy

Gtr I (B E A D G B E) - 'Untitled'
Gtr II (B E A D G B E) - 'Untitled'
Gtr III (B E A D G B E) - 'Untitled'
Gtr IV (B E A D G B E) - 'Untitled'
Gtr V (B E A D G B E) - 'Untitled'
Gtr VI (E A D G B E) - 'Untitled'

   Intro
    Q=135
    Wx4     4x
||----------||
||----------||
||o--------o||
||----------||
||o--------o||
||----------||
||----------||


   Chorus
    Gtr IV
        |-3-|     |-3-|       |-3-|     |-3-|
    Q   E E E Q   E E E   Q   E E E Q   E E E
||----------------------|---------------------|
||----------------------|---------------------|
||o---------------------|---------------------|
||------5-4-5-----5-4-5-|-----5-4-5-----5-4-5-|
||o---------------------|---------------------|
||--0---------0---------|-3---------3---------|
||----------------------|---------------------|
|
|   Gtr I
|   |3| |-3-| |3| |-3-|   |3| |-3-| |3| |-3-|
|   q E E E E q E E E E   q E E E E q E E E E
||----------------------|---------------------|
||----------------------|---------------------|
||o---------------------|---------------------|
||------5-4-5-----5-4-5-|-----5-4-5-----5-4-5-|
||o-2-2-------2-2-------|-5-5-------5-5-------|
||--0-0-------0-0-------|-3-3-------3-3-------|
||----------------------|---------------------|
|
|   Gtr II
|   |3| |-3-| |3| |-3-|   |3| |-3-| |3| |-3-|
|   q E E E E q E E E E   q E E E E q E E E E
||----------------------|---------------------|
||----------------------|---------------------|
||o---------------------|---------------------|
||------5-4-5-----5-4-5-|-----5-4-5-----5-4-5-|
||o-2-2-------2-2-------|-5-5-------5-5-------|
||--0-0-------0-0-------|-3-3-------3-3-------|
||----------------------|---------------------|


      |-3-|     |-3-|   |-3-| |-3-| |-3-| |-3-|
  Q   E E E Q   E E E   E E E E E E E E E E E E
|---------------------|---------------------------||
|---------------------|---------------------------||
|---------------------|-7-5-4-5-4---4------------o||
|-----5-4-5-----5-4-5-|-----------7---7-5-7-5-4---||
|-3---------3---------|--------------------------o||
|---------------------|---------------------------||
|---------------------|---------------------------||
|
| |3| |-3-| |3| |-3-|   |-3-| |-3-| |-3-| |-3-|
| q E E E E q E E E E   E E E E E E E E E E E E
|---------------------|---------------------------||
|---------------------|---------------------------||
|---------------------|-7-5-4-5-4---4------------o||
|-5-5-5-4-5-5-5-5-4-5-|-----------7---7-5-7-5-4---||
|-3-3-------3-3-------|--------------------------o||
|---------------------|---------------------------||
|---------------------|---------------------------||
|
| |3| |-3-| |3| |-3-|   |-3-| |-3-| |-3-| |-3-|
| q E E E E q E E E E   E E E E E E E E E E E E
|---------------------|---------------------------||
|---------------------|---------------------------||
|---------------------|--------------------------o||
|-5-5-5-4-5-5-5-5-4-5-|-9-7-5-7-5---5-------------||
|-3-3-------3-3-------|-----------9---9-7-9-7-5--o||
|---------------------|---------------------------||
|---------------------|---------------------------||


 Verse
  |--3--|  |--3--|  |--3--|  |-3--|   |--3--|  |--3--|  |--3--|  |-3--|
  E  E  E  E  E  E  E  E  E  E  E E   E  E  E  E  E  E  E  E  E  E  E E
|-----------------------------------|-----------------------------------|
|---------12-10----10---------------|---------12-10----10---------------|
|-9-12-11-------12----12-11-12-11-9-|-9-12-11-------12----12-11-12-11-9-|
|-----------------------------------|-----------------------------------|
|-----------------------------------|-----------------------------------|
|-----------------------------------|-----------------------------------|
|-----------------------------------|-----------------------------------|
|
| Gtr I
| |--3--|  |--3--|  |--3--|  |-3--|   |--3--|  |--3--|  |--3--|  |-3--|
| E  E  E  E  E  E  E  E  E  E  E E   E  E  E  E  E  E  E  E  E  E  E E
|-----------------------------------|-----------------------------------|
|---------12-10----10---------------|---------12-10----10---------------|
|-9-12-11-------12----12-11-12-11-9-|-9-12-11-------12----12-11-12-11-9-|
|-----------------------------------|-----------------------------------|
|-----------------------------------|-----------------------------------|
|-----------------------------------|-----------------------------------|
|-----------------------------------|-----------------------------------|
|
| Gtr II
| |--3--|  |--3--|  |--3--|  |-3--|   |--3--|  |--3--|  |--3--|  |-3--|
| E  E  E  E  E  E  E  E  E  E  E E   E  E  E  E  E  E  E  E  E  E  E E
|-----------------------------------|-----------------------------------|
|-----------------------------------|-----------------------------------|
|-----------------------------------|-----------------------------------|
|-----------------------------------|-----------------------------------|
|-----------------------------------|-----------------------------------|
|-0--0--0--0--0--0--0--0--0--0--0-0-|-3--3--3--3--3--3--3--3--3--3--3-3-|
|-----------------------------------|-----------------------------------|


   |--3--|  |--3--|  |--3--|  |--3--|    |--3--|  |--3--|  |--3--|  |--3--|
   E  E  E  E  E  E  E  E  E  E  E  E    E  E  E  E  E  E  E  E  E  E  E  E
|-------------------------------------|----------------------------------------|
|----------15-13----13----------------|----------15-13----------13-15-13-------|
|-12-16-14-------16----16-14-16-14-12-|-12-16-14-------16-14-16----------16----|
|-------------------------------------|----------------------------------------|
|-------------------------------------|----------------------------------------|
|-------------------------------------|----------------------------------------|
|-------------------------------------|----------------------------------------|
|
|  |--3--|  |--3--|  |--3--|  |--3--|    |--3--|  |--3--|  |--3--|  |--3--|
|  E  E  E  E  E  E  E  E  E  E  E  E    E  E  E  E  E  E  E  E  E  E  E  E
|-------------------------------------|----------------------------------------|
|----------12-10----10----------------|----------12-10-------------------------|
|--9-12-11-------12----12-11-12-11--9-|--9-12-11-------12-11-12-14-16-14-12----|
|-------------------------------------|----------------------------------------|
|-------------------------------------|----------------------------------------|
|-------------------------------------|----------------------------------------|
|-------------------------------------|----------------------------------------|
|
|  |--3--|  |--3--|  |--3--|  |--3--|    |--3--|  |--3--|  |--3--|  |--3--|
|  E  E  E  E  E  E  E  E  E  E  E  E    E  E  E  E  E  E  E  E  E  E  E  E
|-------------------------------------|----------------------------------------|
|-------------------------------------|----------------------------------------|
|-------------------------------------|----------------------------------------|
|-------------------------------------|-----------------------------9--7--5----|
|--3--3--3--3--3--3--3--3--3--3--3--3-|--5--5--5--5--5--5--5--5--5-------------|
|-------------------------------------|----------------------------------------|
|-------------------------------------|----------------------------------------|


  |--3--|  |--3--|  |--3--|  |-3--|   |--3--|  |--3--|  |--3--|  |-3--|
  E  E  E  E  E  E  E  E  E  E  E E   E  E  E  E  E  E  E  E  E  E  E E
|-----------------------------------|-----------------------------------|
|---------12-10----10---------------|---------12-10----10---------------|
|-9-12-11-------12----12-11-12-11-9-|-9-12-11-------12----12-11-12-11-9-|
|-----------------------------------|-----------------------------------|
|-----------------------------------|-----------------------------------|
|-----------------------------------|-----------------------------------|
|-----------------------------------|-----------------------------------|
|
| Gtr I
| |--3--|  |--3--|  |--3--|  |-3--|   |--3--|  |--3--|  |--3--|  |-3--|
| E  E  E  E  E  E  E  E  E  E  E E   E  E  E  E  E  E  E  E  E  E  E E
|-----------------------------------|-----------------------------------|
|---------12-10----10---------------|---------12-10----10---------------|
|-9-12-11-------12----12-11-12-11-9-|-9-12-11-------12----12-11-12-11-9-|
|-----------------------------------|-----------------------------------|
|-----------------------------------|-----------------------------------|
|-----------------------------------|-----------------------------------|
|-----------------------------------|-----------------------------------|
|
| Gtr II
|          |--3--|           |-3--|            |--3--|           |-3--|
| Q        E  E  E  Q        E  E E   Q        E  E  E  Q        E  E E
|-----------------------------------|-----------------------------------|
|-----------------------------------|-----------------------------------|
|-----------------------------------|-----------------------------------|
|-----------------------------------|-----------------------------------|
|-2-----------------2---------------|-5-----------------5---------------|
|-0--------0--0--0--0--------0--0-0-|-3--------3--3--3--3--------3--3-3-|
|-----------------------------------|-----------------------------------|


   |--3--|  |--3--|  |--3--|  |--3--|    |--3--|  |--3--|  |--3--|  |--3--|
   E  E  E  E  E  E  E  E  E  E  E  E    E  E  E  E  E  E  E  E  E  E  E  E
|-------------------------------------|----------------------------------------|
|----------15-13----13----------------|----------15-13----------13-15-13-------|
|-12-16-14-------16----16-14-16-14-12-|-12-16-14-------16-14-16----------16----|
|-------------------------------------|----------------------------------------|
|-------------------------------------|----------------------------------------|
|-------------------------------------|----------------------------------------|
|-------------------------------------|----------------------------------------|
|
|  |--3--|  |--3--|  |--3--|  |--3--|    |--3--|  |--3--|  |--3--|  |--3--|
|  E  E  E  E  E  E  E  E  E  E  E  E    E  E  E  E  E  E  E  E  E  E  E  E
|-------------------------------------|----------------------------------------|
|----------12-10----10----------------|----------12-10-------------------------|
|--9-12-11-------12----12-11-12-11--9-|--9-12-11-------12-11-12-14-16-14-12----|
|-------------------------------------|----------------------------------------|
|-------------------------------------|----------------------------------------|
|-------------------------------------|----------------------------------------|
|-------------------------------------|----------------------------------------|
|
|           |--3--|           |--3--|             |--3--|           |--3--|
|  Q        E  E  E  Q        E  E  E    Q        E  E  E  Q        E  E  E
|-------------------------------------|----------------------------------------|
|-------------------------------------|----------------------------------------|
|-------------------------------------|----------------------------------------|
|--5-----------------5----------------|--7-----------------7--------9--7--5----|
|--3--------3--3--3--3--------3--3--3-|--5--------5--5--5--5-------------------|
|-------------------------------------|----------------------------------------|
|-------------------------------------|----------------------------------------|


 Guitar Melody
  Gtr III
   W                                W
|--------------------------------|-----------------------------------|
|--------------------------------|-----------------------------------|
|--------------------------------|-----------------------------------|
|--2-----------------------------|--3--------------------------------|
|--3-----------------------------|--3--------------------------------|
|--5-----------------------------|--1--------------------------------|
|--------------------------------|-----------------------------------|
|
|  |-3--|  |-3-|  |--3--|  |-3-|    |--3--|  |--3--|  |--3--|  |-3-|
|  E  E E  E E E  E  E  E  E E E    E  E  E  E  E  E  E  E  E  E E E
|--------------------------------|-----------------------------------|
|--------------------------------|-----------------------------------|
|--------------------------------|-----------------------------------|
|--------------------------------|-----------------------------------|
|--------------------------------|-----------------------------------|
|--5--5-5--5-5-5--5--5--5--5-5-5-|--1--1--1--1--1--1--1--1--1--1-1-1-|
|--------------------------------|-----------------------------------|
|
|          ~~              ~~                                  ~~
|  |-3--|         |--3--|           |--3--|  |--3--|  |--3--|
|  E  E E  Q      E  E  E  Q        E  E  E  E  E  E  E  E  E  Q
|----------------12-10-12-10-----|-20-17-------------------17--------|
|---------10-----13-12-10-12-----|-------18----18-20-18-20----20-----|
|-------9------------------------|----------17-----------------------|
|----10--------------------------|-----------------------------------|
|-12-----------------------------|-----------------------------------|
|--------------------------------|-----------------------------------|
|--------------------------------|-----------------------------------|


   W                               H              Q    Q
|------------------------------|---------------------------|
|------------------------------|---------------------------|
|--0---------------------------|---------------------------|
|--2---------------------------|---0-------------10----9---|
|--3---------------------------|---2-------------10----9---|
|------------------------------|---3--------------8----7---|
|------------------------------|---------------------------|
|
|  |-3-| |-3-|  |-3--|  |-3--|     |-3--| |-3-|
|  E E E E E E  E  E E  E  E E     E  E E E E E   Q    Q
|------------------------------|---------------------------|
|------------------------------|---------------------------|
|------------------------------|---------------------------|
|------------------------------|-----------------10----9---|
|--3-3-3-3-3-3--3--3-3--3--3-3-|-----------------10----9---|
|------------------------------|---3--3-3-3-3-3---8----7---|
|------------------------------|---------------------------|
|
|  ~~                              ~~~~
|               |-3--|  |-3--|
|  H            E  E E  E  E E     H              Q    Q
|------------------------------|---------------------------|
|------------------------------|---------------------------|
|--9---------------------------|---------------------------|
|-10-----------12-10-9---------|--[9]-----------[10]--[9]--|
|----------------------12-10-9-|-[10]----------------------|
|------------------------------|---------------------------|
|------------------------------|---------------------------|


   W                                    W
|------------------------------------|-------------------------------|
|------------------------------------|-------------------------------|
|------------------------------------|-------------------------------|
|--2---------------------------------|--3----------------------------|
|--3---------------------------------|--3----------------------------|
|--5---------------------------------|--1----------------------------|
|------------------------------------|-------------------------------|
|
|  |--3--|  |--3--|  |-3--|  |--3--|    |-3--|  |--3--|  |-3-| |-3-|
|  E  E  E  E  E  E  E E  E  E  E  E    E E  E  E  E  E  E E E E E E
|------------------------------------|-------------------------------|
|------------------------------------|-------------------------------|
|------------------------------------|-------------------------------|
|------------------------------------|-------------------------------|
|------------------------------------|-------------------------------|
|--5--5--5--5--5--5--5-5--5--5--5--5-|--1-1--1--1--1--1--1-1-1-1-1-1-|
|------------------------------------|-------------------------------|
|
|                                                        ~~
|  |--3--|  |--3--|  |-3--|  |--3--|    |-3--|  |--3--|
|  E  E  E  E  E  E  Q    E  E  E  E    Q    E  E  E  E  H
|------------------------------------|-------------------------------|
|-10----10-13-12-10-12---12-15-13-12-|-13---13-17-15-13-15-----------|
|----12------------------------------|-------------------------------|
|------------------------------------|-------------------------------|
|------------------------------------|-------------------------------|
|------------------------------------|-------------------------------|
|------------------------------------|-------------------------------|


   W                              H            Q   Q
|------------------------------|----------------------|
|--1---------------------------|----------------------|
|--0---------------------------|--0-------------------|
|--2---------------------------|--0-----------10---9--|
|--3---------------------------|--2-----------10---9--|
|------------------------------|--3------------8---7--|
|------------------------------|----------------------|
|
|  |-3-| |-3-|  |-3--|  |-3--|    |-3-| |-3-|
|  E E E E E E  E  E E  E  E E    E E E E E E  Q   Q
|------------------------------|----------------------|
|------------------------------|----------------------|
|------------------------------|----------------------|
|------------------------------|--------------10---9--|
|--3-3-3-3-3-3--3--3-3--3--3-3-|--------------10---9--|
|------------------------------|--3-3-3-3-3-3--8---7--|
|------------------------------|----------------------|
|
|               |-3--|  |-3--|
|  H            E  E E  E  E E    H            Q   Q
|------------------------------|----------------------|
|----------------------------8-|-12-----------13--12--|
|--9-----------11--9-7--9-11-9-|-12-------------------|
|-10-----------12-10-9-10-12---|----------------------|
|------------------------------|----------------------|
|------------------------------|----------------------|
|------------------------------|----------------------|


   Story Time
    Gtr IV
     W                    H        Q      Q
||---------------------|----------------------|
||--10-----------------|----------13-----15---|
||o--------------------|-10-------------------|
||---------------------|----------------------|
||o--------------------|----------------------|
||---------------------|----------------------|
||---------------------|----------------------|
|
|    E E E E S S E E E    E E E E  S S E  E E
||---------------------|----------------------|
||---------------------|----------------------|
||o--------------------|----------------------|
||-----7---7-----7---7-|----3---3------3----3-|
||o----7---7-----7---7-|----3---3------3----3-|
||---5-5-5-5-5-5-5-5-5-|--1-1-1-1--1-1-1--1-1-|
||---------------------|----------------------|
|
|    E E E E S S E E E    E E E E  S S E  E E
||---------------------|----------------------|
||---------------------|----------------------|
||o--------------------|----------------------|
||---------------------|----------------------|
||o----3---3-----3---3-|----------------------|
||---5-5-5-5-5-5-5-5-5-|----5---5------5----5-|
||---------------------|--6-6-6-6--6-6-6--6-6-|


   H.              E  E    H        Q   Q
|-----------------------|-------------------||
|-17--------------18-17-|-15-------13--12---||
|-----------------------|------------------o||
|-----------------------|-------------------||
|-----------------------|------------------o||
|-----------------------|-------------------||
|-----------------------|-------------------||
|
|  E  E E E S S E  E  E    E E E E  Q   Q
|-----------------------|-------------------||
|-----------------------|-------------------||
|-----5---5-----5-----5-|------------------o||
|-----5---5-----5-----5-|----5---5-10---9---||
|--3--3-3-3-3-3-3--3--3-|----5---5-10---9--o||
|-----------------------|--3-3-3-3--8---7---||
|-----------------------|-------------------||
|
|  E  E E E S S E  E  E    E E E E  Q   Q
|-----------------------|-------------------||
|-----------------------|-------------------||
|-----------------------|------------------o||
|-----2---2-----2-----2-|----------10---9---||
|--3--3-3-3-3-3-3--3--3-|----2---2-10---9--o||
|-----------------------|--3-3-3-3--8---7---||
|-----------------------|-------------------||


   Breakdown
    Gtrs I, II
                                     ~~~
                                |-3--|                     |-3-|  |-3--|
    E E +Q.   E S S E   E. E. E Q Q  Q    E E Q.   E E E   q q q  Q  Q Q
||--------------------|-----------------|----------------|---------------|
||--------------------|-----------------|----------------|---------------|
||o-------------------|-----------------|----------------|---------------|
||--2-2-(2)-----------|-2--2--2---------|----------------|---------------|
||o-2-2-(2)---2-------|-2--2--2---------|-2-2------2-2-2-|-7-7-7-10-10-9-|
||--0-0-(0)---0-0-0-0-|-0--0--0---------|-0-0------0-0-0-|-5-5-5--8--8-7-|
||--------------------|---------3-2--|----------------|---------------|


            2/4     4/4
             |-3-|                    |-3-| |-3--|
  W          Q Q Q   E E Q.   E E E   q q q Q Q  Q
|----------|-------|----------------|---------------||
|----------|-------|----------------|---------------||
|----------|-------|----------------|--------------o||
|----------|-3-3-3-|----------------|-------5-7--9--||
|----------|-3-3-3-|-2-2------2-2-2-|-7-7-7-7-9-10-o||
|----------|-1-1-1-|-0-0------0-0-0-|-5-5-5---------||
|----------|-------|----------------|---------------||


   Chorus
    Gtr IV
        |-3-|     |-3-|       |-3-|     |-3-|
    Q   E E E Q   E E E   Q   E E E Q   E E E
||----------------------|---------------------|
||----------------------|---------------------|
||o---------------------|---------------------|
||------5-4-5-----5-4-5-|-----5-4-5-----5-4-5-|
||o---------------------|---------------------|
||--0---------0---------|-3---------3---------|
||----------------------|---------------------|
|
|   Gtr I
|   |3| |-3-| |3| |-3-|   |3| |-3-| |3| |-3-|
|   q E E E E q E E E E   q E E E E q E E E E
||----------------------|---------------------|
||----------------------|---------------------|
||o---------------------|---------------------|
||------5-4-5-----5-4-5-|-----5-4-5-----5-4-5-|
||o-2-2-------2-2-------|-5-5-------5-5-------|
||--0-0-------0-0-------|-3-3-------3-3-------|
||----------------------|---------------------|
|
|   Gtr II
|   |3| |-3-| |3| |-3-|   |3| |-3-| |3| |-3-|
|   q E E E E q E E E E   q E E E E q E E E E
||----------------------|---------------------|
||----------------------|---------------------|
||o---------------------|---------------------|
||------5-4-5-----5-4-5-|-----5-4-5-----5-4-5-|
||o-2-2-------2-2-------|-5-5-------5-5-------|
||--0-0-------0-0-------|-3-3-------3-3-------|
||----------------------|---------------------|


      |-3-|     |-3-|   |-3-| |-3-| |-3-| |-3-|
  Q   E E E Q   E E E   E E E E E E E E E E E E
|---------------------|---------------------------||
|---------------------|---------------------------||
|---------------------|-7-5-4-5-4---4------------o||
|-----5-4-5-----5-4-5-|-----------7---7-5-7-5-4---||
|-3---------3---------|--------------------------o||
|---------------------|---------------------------||
|---------------------|---------------------------||
|
| |3| |-3-| |3| |-3-|   |-3-| |-3-| |-3-| |-3-|
| q E E E E q E E E E   E E E E E E E E E E E E
|---------------------|---------------------------||
|---------------------|---------------------------||
|---------------------|-7-5-4-5-4---4------------o||
|-5-5-5-4-5-5-5-5-4-5-|-----------7---7-5-7-5-4---||
|-3-3-------3-3-------|--------------------------o||
|---------------------|---------------------------||
|---------------------|---------------------------||
|
| |3| |-3-| |3| |-3-|   |-3-| |-3-| |-3-| |-3-|
| q E E E E q E E E E   E E E E E E E E E E E E
|---------------------|---------------------------||
|---------------------|---------------------------||
|---------------------|--------------------------o||
|-5-5-5-4-5-5-5-5-4-5-|-9-7-5-7-5---5-------------||
|-3-3-------3-3-------|-----------9---9-7-9-7-5--o||
|---------------------|---------------------------||
|---------------------|---------------------------||


 Verse
  |--3--|  |--3--|  |--3--|  |-3--|   |--3--|  |--3--|  |--3--|  |-3--|
  E  E  E  E  E  E  E  E  E  E  E E   E  E  E  E  E  E  E  E  E  E  E E
|-----------------------------------|-----------------------------------|
|---------12-10----10---------------|---------12-10----10---------------|
|-9-12-11-------12----12-11-12-11-9-|-9-12-11-------12----12-11-12-11-9-|
|-----------------------------------|-----------------------------------|
|-----------------------------------|-----------------------------------|
|-----------------------------------|-----------------------------------|
|-----------------------------------|-----------------------------------|
|
| Gtr I
| |--3--|  |--3--|  |--3--|  |-3--|   |--3--|  |--3--|  |--3--|  |-3--|
| E  E  E  E  E  E  E  E  E  E  E E   E  E  E  E  E  E  E  E  E  E  E E
|-----------------------------------|-----------------------------------|
|---------12-10----10---------------|---------12-10----10---------------|
|-9-12-11-------12----12-11-12-11-9-|-9-12-11-------12----12-11-12-11-9-|
|-----------------------------------|-----------------------------------|
|-----------------------------------|-----------------------------------|
|-----------------------------------|-----------------------------------|
|-----------------------------------|-----------------------------------|
|
| Gtr II
| |--3--|  |--3--|  |--3--|  |-3--|   |--3--|  |--3--|  |--3--|  |-3--|
| E  E  E  E  E  E  E  E  E  E  E E   E  E  E  E  E  E  E  E  E  E  E E
|-----------------------------------|-----------------------------------|
|-----------------------------------|-----------------------------------|
|-----------------------------------|-----------------------------------|
|-----------------------------------|-----------------------------------|
|-----------------------------------|-----------------------------------|
|-0--0--0--0--0--0--0--0--0--0--0-0-|-3--3--3--3--3--3--3--3--3--3--3-3-|
|-----------------------------------|-----------------------------------|


   |--3--|  |--3--|  |--3--|  |--3--|    |--3--|  |--3--|  |--3--|  |--3--|
   E  E  E  E  E  E  E  E  E  E  E  E    E  E  E  E  E  E  E  E  E  E  E  E
|-------------------------------------|----------------------------------------|
|----------15-13----13----------------|----------15-13----------13-15-13-------|
|-12-16-14-------16----16-14-16-14-12-|-12-16-14-------16-14-16----------16----|
|-------------------------------------|----------------------------------------|
|-------------------------------------|----------------------------------------|
|-------------------------------------|----------------------------------------|
|-------------------------------------|----------------------------------------|
|
|  |--3--|  |--3--|  |--3--|  |--3--|    |--3--|  |--3--|  |--3--|  |--3--|
|  E  E  E  E  E  E  E  E  E  E  E  E    E  E  E  E  E  E  E  E  E  E  E  E
|-------------------------------------|----------------------------------------|
|----------12-10----10----------------|----------12-10-------------------------|
|--9-12-11-------12----12-11-12-11--9-|--9-12-11-------12-11-12-14-16-14-12----|
|-------------------------------------|----------------------------------------|
|-------------------------------------|----------------------------------------|
|-------------------------------------|----------------------------------------|
|-------------------------------------|----------------------------------------|
|
|  |--3--|  |--3--|  |--3--|  |--3--|    |--3--|  |--3--|  |--3--|  |--3--|
|  E  E  E  E  E  E  E  E  E  E  E  E    E  E  E  E  E  E  E  E  E  E  E  E
|-------------------------------------|----------------------------------------|
|-------------------------------------|----------------------------------------|
|-------------------------------------|----------------------------------------|
|-------------------------------------|-----------------------------9--7--5----|
|--3--3--3--3--3--3--3--3--3--3--3--3-|--5--5--5--5--5--5--5--5--5-------------|
|-------------------------------------|----------------------------------------|
|-------------------------------------|----------------------------------------|


  |--3--|  |--3--|  |--3--|  |-3--|   |--3--|  |--3--|  |--3--|  |-3--|
  E  E  E  E  E  E  E  E  E  E  E E   E  E  E  E  E  E  E  E  E  E  E E
|-----------------------------------|-----------------------------------|
|---------12------------------------|---------12-10----10---------------|
|-9-12-11----14-12-14-12-11-12-11-9-|-9-12-11-------12----12-11-12-11-9-|
|-----------------------------------|-----------------------------------|
|-----------------------------------|-----------------------------------|
|-----------------------------------|-----------------------------------|
|-----------------------------------|-----------------------------------|
|
| Gtr I
| |--3--|  |--3--|  |--3--|  |-3--|   |--3--|  |--3--|  |--3--|  |-3--|
| E  E  E  E  E  E  E  E  E  E  E E   E  E  E  E  E  E  E  E  E  E  E E
|-----------------------------------|-----------------------------------|
|---------12-10----10---------------|---------12-10----10---------------|
|-9-12-11-------12----12-11-12-11-9-|-9-12-11-------12----12-11-12-11-9-|
|-----------------------------------|-----------------------------------|
|-----------------------------------|-----------------------------------|
|-----------------------------------|-----------------------------------|
|-----------------------------------|-----------------------------------|
|
| Gtr II
|          |--3--|           |-3--|            |--3--|           |-3--|
| Q        E  E  E  Q        E  E E   Q        E  E  E  Q        E  E E
|-----------------------------------|-----------------------------------|
|-----------------------------------|-----------------------------------|
|-----------------------------------|-----------------------------------|
|-----------------------------------|-----------------------------------|
|-2-----------------2---------------|-5-----------------5---------------|
|-0--------0--0--0--0--------0--0-0-|-3--------3--3--3--3--------3--3-3-|
|-----------------------------------|-----------------------------------|


   |--3--|  |--3--|  |--3--|  |--3--|    |--3--|  |--3--|  |--3--|  |--3--|
   E  E  E  E  E  E  E  E  E  E  E  E    E  E  E  E  E  E  E  E  E  E  E  E
|-------------------------------------|----------------------------------------|
|----------15-13----13----------------|----------15-13-------------------------|
|-12-16-14-------16----16-14-16-14-12-|-12-16-14-------16-14-16-17-19-17-16----|
|-------------------------------------|----------------------------------------|
|-------------------------------------|----------------------------------------|
|-------------------------------------|----------------------------------------|
|-------------------------------------|----------------------------------------|
|
|  |--3--|  |--3--|  |--3--|  |--3--|    |--3--|  |--3--|  |--3--|  |--3--|
|  E  E  E  E  E  E  E  E  E  E  E  E    E  E  E  E  E  E  E  E  E  E  E  E
|-------------------------------------|----------------------------------------|
|----------12-10----10----------------|----------12-10-------------------------|
|--9-12-11-------12----12-11-12-11--9-|--9-12-11-------12-11-12-14-16-14-12----|
|-------------------------------------|----------------------------------------|
|-------------------------------------|----------------------------------------|
|-------------------------------------|----------------------------------------|
|-------------------------------------|----------------------------------------|
|
|           |--3--|           |--3--|             |--3--|           |--3--|
|  Q        E  E  E  Q        E  E  E    Q        E  E  E  Q        E  E  E
|-------------------------------------|----------------------------------------|
|-------------------------------------|----------------------------------------|
|-------------------------------------|----------------------------------------|
|--5-----------------5----------------|--7-----------------7--------9--7--5----|
|--3--------3--3--3--3--------3--3--3-|--5--------5--5--5--5-------------------|
|-------------------------------------|----------------------------------------|
|-------------------------------------|----------------------------------------|


 Fill To Bridge Bridge Intro
  q  H    Q                        4x
|------------||--------------------||
|------------||--------------------||
|------------||o------------------o||
|-5-------5--||--------------------||
|-5-------5--||o------------------o||
|-3-------3--||--------------------||
|------------||--------------------||
|
|                |3| |-3-| |3|
| q  H    Q      Q E E E E Q E Q   4x
|------------||--------------------||
|------------||--------------------||
|------------||o------------------o||
|-5-------5--||--------------------||
|-5-------5--||o---4-------4---4--o||
|-3-------3--||----4-------4---4---||
|------------||--2-2-2-2-2-2-2-2---||
|
|                |3| |-3-| |3|
| q  H    Q      Q E E E E Q E Q   4x
|------------||--------------------||
|------------||--------------------||
|------------||o------------------o||
|-5-------5--||--------------------||
|-5-------5--||o---4-------4---4--o||
|-3-------3--||----4-------4---4---||
|------------||--2-2-2-2-2-2-2-2---||


   Bridge Verse
    Gtr I
    |3| |-3-| |3|      |3| |-3-| |3| |-3-|   |3|    |3|      |3| |-3-|
    Q E E E E Q E Q    Q E E E E Q E E E E   Q E Q  Q E Q    Q E E E E q  Q
||-------------------|---------------------|---------------|------------------||
||-------------------|---------------------|---------------|------------------||
||o------------------|---------------------|---------------|-----------------o||
||-------------------|---------------------|-7---7--6---6--|-4------------5---||
||o---4-------4---4--|---9---------7-------|-7---7--6---6--|-4---------4--5--o||
||----4-------4---4--|---9---------7-------|-5-5-5--4-4-4--|-2-2-4-5-2-4--3---||
||--2-2-2-2-2-2-2-2--|-7-7-7-7-7-5-5-5-5-5-|---------------|-----------2------||
|
|   Gtr II
|   |3| |-3-| |3|      |3| |-3-| |3| |-3-|   |3|    |3|      |3| |-3-|
|   Q E E E E Q E Q    Q E E E E Q E E E E   Q E Q  Q E Q    Q E E E E q  Q
||-------------------|---------------------|---------------|------------------||
||-------------------|---------------------|---------------|------------------||
||o------------------|---------------------|---------------|-----------------o||
||-------------------|---------------------|-7-4-7--6-4-6--|-4------------5---||
||o---4-------7-6-4--|---9---------7-------|---------------|-4---------4--5--o||
||----4--------------|---9---------7-------|---------------|-2-2-4-5-2-4--3---||
||--2-2-2-2-2--------|-7-7-7-7-7-5-5-5-5-5-|---------------|-----------2------||


 Bridge Lead
  Gtr I
   |3-|  |-3--|  |3-|        |--3--|  |-3--|  |--3--|  |-3--|
   Q  E  Q    E  Q  E  Q     E  E  E  Q    E  E  E  E  Q    E
|-------------------------|-----------------------------------|
|-------------------------|-----------------------------------|
|----13-------------------|-11-------11---14---------------13-|
|-11----11---13-14-13-11--|----13-14---------14-11-13-14------|
|-------------------------|-----------------------------------|
|-------------------------|-----------------------------------|
|-------------------------|-----------------------------------|
|
|  |3-|  |-3--|  |3-|        |--3--|  |-3--|  |--3--|  |-3--|
|  Q  E  E E  E  Q  E  Q     Q     E  E E  E  Q     E  E E  E
|-------------------------|-----------------------------------|
|-------------------------|-----------------------------------|
|-------------------------|-----------------------------------|
|-------------------------|-----------------------------------|
|-----4----------4-----4--|--------9----------------7---------|
|-----4----------4-----4--|--------9----------------7---------|
|--2--2--2-2--2--2--2--2--|--7-----7--7-7--7--5-----5--5-5--5-|


                     |--3--|  |--3--|
   H       H         E  E  E  E  E  E  q  Q
|-----------------|--------------------------|
|-----------------|--------------------------|
|-14------13------|-11-----------------------|
|-----------------|----14-13-11-13-14-11-----|
|-----------------|--------------------------|
|-----------------|--------------------------|
|-----------------|--------------------------|
|
|  |3|     |3|       |--3--|  |--3--|
|  Q E Q   Q E Q     Q     E  E  E  E  q  Q
|-----------------|--------------------------|
|-----------------|--------------------------|
|-----------------|--------------------------|
|--7---7---6---6--|--4--------------------5--|
|--7---7---6---6--|--4-----------------4--5--|
|--5-5-5---4-4-4--|--2-----2--4--5--2--4--3--|
|-----------------|--------------------2-----|


  Gtr III
   |3-|  |-3--|  |3-|        |--3--|  |-3--|  |--3--|  |-3--|
   Q  E  Q    E  Q  E  Q     E  E  E  Q    E  E  E  E  Q    E
|-------------------------|-----------------------------------|
|-------------------------|-----------------------------------|
|----13-------------------|-11-------11---14---------------13-|
|-11----11---13-14-13-11--|----13-14---------14-11-13-14------|
|-------------------------|-----------------------------------|
|-------------------------|-----------------------------------|
|-------------------------|-----------------------------------|
|
| Gtr I
|  |3-|  |-3--|  |3-|        |--3--|  |-3--|  |--3--|  |-3--|
|  Q  E  Q    E  Q  E  Q     E  E  E  Q    E  E  E  E  Q    E
|-------------------------|-----------------------------------|
|-------------------------|-----------------------------------|
|----16-------------------|-14-------14---18---------------16-|
|-14----14---16-18-16-14--|----16-18---------18-14-16-18------|
|-------------------------|-----------------------------------|
|-------------------------|-----------------------------------|
|-------------------------|-----------------------------------|
|
| Gtr II
|  |3-|  |-3--|  |3-|        |--3--|  |-3--|  |--3--|  |-3--|
|  Q  E  E E  E  Q  E  Q     Q     E  E E  E  Q     E  E E  E
|-------------------------|-----------------------------------|
|-------------------------|-----------------------------------|
|-------------------------|-----------------------------------|
|-------------------------|-----------------------------------|
|-----4----------4-----4--|--------9----------------7---------|
|-----4----------4-----4--|--------9----------------7---------|
|--2--2--2-2--2--2--2--2--|--7-----7--7-7--7--5-----5--5-5--5-|


                     |--3--|  |--3--|
   H       H         E  E  E  E  E  E  q  Q
|-----------------|--------------------------|
|-----------------|--------------------------|
|-14------13------|-11-----------------------|
|-----------------|----14-13-11-13-14-11-----|
|-----------------|--------------------------|
|-----------------|--------------------------|
|-----------------|--------------------------|
|
|                    |--3--|  |--3--|
|  H       H         E  E  E  E  E  E  q  Q
|-----------------|--------------------------|
|-----------------|--------------------------|
|-18------17------|-14-----------------------|
|-----------------|----18-16-14-16-18-14-----|
|-----------------|--------------------------|
|-----------------|--------------------------|
|-----------------|--------------------------|
|
|  |3|     |3|       |--3--|  |--3--|
|  Q E Q   Q E Q     Q     E  E  E  E  q  Q
|-----------------|--------------------------|
|-----------------|--------------------------|
|-----------------|--------------------------|
|--7---7---6---6--|--4--------------------5--|
|--7---7---6---6--|--4-----------------4--5--|
|--5-5-5---4-4-4--|--2-----2--4--5--2--4--3--|
|-----------------|--------------------2-----|


 Main Solo
  Gtr III
          |--3---|                  |--3---|        |--3--|
    Q    +E   E  E  H         Q    +E   E  E  Q    +Q     E
|--------------------------|--------------------------------|
|--------------------------|--------------------------------|
|-/13---(13)---------------|-----------------------------13-|
|------------14-13-11------|-16---(16)-14-13-14---(14)------|
|--------------------------|--------------------------------|
|--------------------------|--------------------------------|
|--------------------------|--------------------------------|
|
| Gtr I
|   |3|   |--3---|  |3|       |3|   |--3---|  |3|   |--3--|
|   Q E   E   E  E  Q E Q     Q E   E   E  E  Q E   E  E  E
|--------------------------|--------------------------------|
|--------------------------|--------------------------------|
|--------------------------|--------------------------------|
|--------------------------|--------------------------------|
|-----4-------------4---4--|----9---------------7-----------|
|-----4-------------4---4--|----9---------------7-----------|
|---2-2---2---2--2--2-2-2--|--7-7---7---7--7--5-5---5--5--5-|
|
| Gtr II
|   |3|   |--3---|  |3|       |3|   |--3---|  |3|   |--3--|
|   Q E   E   E  E  Q E Q     Q E   E   E  E  Q E   E  E  E
|--------------------------|--------------------------------|
|--------------------------|--------------------------------|
|--------------------------|--------------------------------|
|--------------------------|--------------------------------|
|-----4-------------7-6-4--|----9---------------7-----------|
|-----4--------------------|----9---------------7-----------|
|---2-2---2---2--2---------|--7-7---7---7--7--5-5---5--5--5-|


   |--3--|  |--3--|  |--3--|  |--3--|    |--3--|  |-3--|
   E  E  E  E  E  E  E  E  E  E  E  E    E  E  E  E  E E  H
|-------------------------------------|--------------------------|
|-------------------------------------|--------------------------|
|-14-------13-------14----14-13-------|-11-11-11-13--------------|
|----16-14----14-13----16-------14-13-|-------------14-9-11------|
|-------------------------------------|--------------------------|
|-------------------------------------|--------------------------|
|-------------------------------------|--------------------------|
|
|  |--3--|           |--3--|             |--3--|  |-3--|
|  Q     E  Q        Q     E  Q          Q     E  E  E E  q  Q
|-------------------------------------|--------------------------|
|-------------------------------------|--------------------------|
|-------------------------------------|--------------------------|
|--7--------7--------6--------6-------|--4-------------------5---|
|--7--------7--------6--------6-------|--4----------------4--5---|
|--5-----5--5--------4-----4--4-------|--2-----2--4--5-2--4--3---|
|-------------------------------------|-------------------2------|
|
|  |--3--|           |--3--|             |--3--|  |-3--|
|  Q     E  Q        Q     E  Q          Q     E  E  E E  q  Q
|-------------------------------------|--------------------------|
|-------------------------------------|--------------------------|
|-------------------------------------|--------------------------|
|--7-----4--7--------6-----4--6-------|--4-------------------5---|
|-------------------------------------|--4----------------4--5---|
|-------------------------------------|--2-----2--4--5-2--4--3---|
|-------------------------------------|-------------------2------|


  Gtr I
          |--3---|                  |--3---|        |--3--|
    Q    +E   E  E  H         Q    +E   E  E  Q    +Q     E
|-/16---(16)---------------|-----------------------------16-|
|------------14-16-17------|--------------------------------|
|--------------------------|-14---(14)-16-14-13---(13)------|
|--------------------------|--------------------------------|
|--------------------------|--------------------------------|
|--------------------------|--------------------------------|
|--------------------------|--------------------------------|
|
| Gtr II
|   |3|   |--3---|  |3|       |3|   |--3---|  |3|   |--3--|
|   Q E   E   E  E  Q E Q     Q E   E   E  E  Q E   E  E  E
|--------------------------|--------------------------------|
|--------------------------|--------------------------------|
|--------------------------|--------------------------------|
|--------------------------|--------------------------------|
|-----4-------------4---4--|----9---------------7-----------|
|-----4-------------4---4--|----9---------------7-----------|
|---2-2---2---2--2--2-2-2--|--7-7---7---7--7--5-5---5--5--5-|


                                              ~~
   |--3--|  |--3--|  |--3---|    |---3---|
   E  E  E  E  E  E  H      Q    Q  Q    Q    H
|-17----------19-17-16--------|----------------------|
|----19-14-19--------------17-|-16-17---16---14------|
|-----------------------------|----------------------|
|-----------------------------|----------------------|
|-----------------------------|----------------------|
|-----------------------------|----------------------|
|-----------------------------|----------------------|
|
|  |--3--|           |3|         |3-| |-3--|
|  Q     E  Q        Q E Q       Q  E E  E E  q  Q
|-----------------------------|----------------------|
|-----------------------------|----------------------|
|-----------------------------|----------------------|
|--7--------7--------6---6----|--4---------------5---|
|--7--------7--------6---6----|--4------------4--5---|
|--5-----5--5--------4-4-4----|--2--2-4--5-2--4--3---|
|-----------------------------|---------------2------|


  Gtr III
  |-3--| |-3--| |-3-| |-3--|   |---3---|          |-3--|
  E E  E E E  E E E E E  E E   Q  Q    Q    Q    +Q    E
|----------------------------|-9-12---11---12---(12)-----|
|-9------9------7---7-9-10-9-|-------------------------9-|
|---9------9------9----------|---------------------------|
|-----11-----11--------------|---------------------------|
|----------------------------|---------------------------|
|----------------------------|---------------------------|
|----------------------------|---------------------------|
|
| |-3--| |-3--| |-3-|          |3-| |-3--|  |3|   |-3--|
| Q    E E E  E Q   E Q        Q  E E  E E  Q E   E  E E
|----------------------------|---------------------------|
|----------------------------|---------------------------|
|----------------------------|---------------------------|
|----------------------------|---------------------------|
|------4--------4-----4------|----9-----------7----------|
|------4--------4-----4------|----9-----------7----------|
|-2----2-2-2--2-2---2-2------|-7--7-7--7-7--5-5---5--5-5-|
|
| |-3--| |-3--| |-3-|          |3-| |-3--|  |3|   |-3--|
| Q    E E E  E Q   E Q        Q  E E  E E  Q E   E  E E
|----------------------------|---------------------------|
|----------------------------|---------------------------|
|----------------------------|---------------------------|
|----------------------------|---------------------------|
|------4--------7---6-4------|----9-----------7----------|
|------4---------------------|----9-----------7----------|
|-2----2-2-2--2--------------|-7--7-7--7-7--5-5---5--5-5-|


   |--3--|           |-3-| |-3-|
   Q Q   Q H         E E E E E E  E
|-----------------|-----------------------|
|-10-5---7-9------|-----------------------|
|-----------------|-11-9-8-9-8------------|
|-----------------|------------9-11-------|
|-----------------|-----------------------|
|-----------------|-----------------------|
|-----------------|-----------------------|
|
|  |3|     |3|       |-3-| |-3-|
|  Q E Q   Q E Q     Q   E E E E  q  Q
|-----------------|-----------------------|
|-----------------|-----------------------|
|-----------------|-----------------------|
|--7---7---6---6--|--4---------------5----|
|--7---7---6---6--|--4------------4--5----|
|--5-5-5---4-4-4--|--2---2-4-5-2--4--3----|
|-----------------|---------------2-------|
|
|  |3|     |3|       |-3-| |-3-|
|  Q E Q   Q E Q     Q   E E E E  q  Q
|-----------------|-----------------------|
|-----------------|-----------------------|
|-----------------|-----------------------|
|--7-4-7---6-4-6--|--4---------------5----|
|-----------------|--4------------4--5----|
|-----------------|--2---2-4-5-2--4--3----|
|-----------------|---------------2-------|


  Gtr III
                                                         ~~
   |--3--|  |--3--|  |--3--|  |--3--|          |--3---|
   E  E  E  E  E  E  E  E  E  E  E  E    Q    +E   E  E  H
|-------------------------------14-16-|-14---(14)-------16---------|
|----------------------14-16-17-------|-----------17-16------------|
|-------------13-14-16----------------|----------------------------|
|----13-14-16-------------------------|----------------------------|
|-16----------------------------------|----------------------------|
|-------------------------------------|----------------------------|
|-------------------------------------|----------------------------|
|
| Gtr I
|                                                        ~~
|  |--3--|  |--3--|  |--3--|  |--3--|          |--3---|
|  E  E  E  E  E  E  E  E  E  E  E  E    Q    +E   E  E  H
|----------------------------16-17-19-|-17---(17)-16-14-19---------|
|-------------------16-17-19----------|----------------------------|
|----------14-16-18-------------------|----------------------------|
|-14-16-18----------------------------|----------------------------|
|-------------------------------------|----------------------------|
|-------------------------------------|----------------------------|
|-------------------------------------|----------------------------|
|
| Gtr II
|  |--3--|  |--3--|  |--3--|             |3|   |--3---|  |3| |-3-|
|  Q     E  E  E  E  Q     E  Q          Q E   E   E  E  Q E E E E
|-------------------------------------|----------------------------|
|-------------------------------------|----------------------------|
|-------------------------------------|----------------------------|
|-------------------------------------|----------------------------|
|--------4-----------4--------4-------|----9---------------7-------|
|--------4-----------4--------4-------|----9---------------7-------|
|--2-----2--2--2--2--2-----2--2-------|--7-7---7---7--7--5-5-5-5-5-|


   |-3--| |--3--|  |-3-| |--3--|          |--3---|
   E E  E E  E  E  E E E E  E  E    Q    +E   E  E  H
|-12p9------------11p8-----------|--------------------------|
|------10--------------9---------|--------------------------|
|---------9--------------8-------|-11---(11)-14-13----------|
|-----------11-------------10----|-----------------11-------|
|--------------12-------------11-|--------------------------|
|--------------------------------|--------------------------|
|--------------------------------|--------------------------|
|
|  |-3--| |--3--|  |-3-| |--3--|          |--3---|
|  E E  E E  E  E  E E E E  E  E    Q    +E   E  E  H
|-12p9------------11p8-----------|--------------------------|
|------10--------------9---------|-10---(10)-14-12----------|
|---------9--------------8-------|------------------6-------|
|-----------11-------------10----|--------------------------|
|--------------12-------------11-|--------------------------|
|--------------------------------|--------------------------|
|--------------------------------|--------------------------|
|
|  |-3--|          |-3-|            |3|   |--3---|
|  Q    E Q        Q   E Q          Q E   E   E  E  q  Q
|--------------------------------|--------------------------|
|--------------------------------|--------------------------|
|--------------------------------|--------------------------|
|--7------7--------6-----6-------|--4------------------5----|
|--7------7--------6-----6-------|--4---------------4--5----|
|--5----5-5--------4---4-4-------|--2-2---4---5--2--4--3----|
|--------------------------------|------------------2-------|


   Interlude
    Wx4
||----------||
||----------||
||o--------o||
||----------||
||o--------o||
||----------||
||----------||


   Chorus
    Gtr IV
        |-3-|     |-3-|       |-3-|     |-3-|
    Q   E E E Q   E E E   Q   E E E Q   E E E
||----------------------|---------------------|
||----------------------|---------------------|
||o---------------------|---------------------|
||------5-4-5-----5-4-5-|-----5-4-5-----5-4-5-|
||o---------------------|---------------------|
||--0---------0---------|-3---------3---------|
||----------------------|---------------------|
|
|   Gtr I
|   |3| |-3-| |3| |-3-|   |3| |-3-| |3| |-3-|
|   q E E E E q E E E E   q E E E E q E E E E
||----------------------|---------------------|
||----------------------|---------------------|
||o---------------------|---------------------|
||------5-4-5-----5-4-5-|-----5-4-5-----5-4-5-|
||o-2-2-------2-2-------|-5-5-------5-5-------|
||--0-0-------0-0-------|-3-3-------3-3-------|
||----------------------|---------------------|
|
|   Gtr II
|   |3| |-3-| |3| |-3-|   |3| |-3-| |3| |-3-|
|   q E E E E q E E E E   q E E E E q E E E E
||----------------------|---------------------|
||----------------------|---------------------|
||o---------------------|---------------------|
||------5-4-5-----5-4-5-|-----5-4-5-----5-4-5-|
||o-2-2-------2-2-------|-5-5-------5-5-------|
||--0-0-------0-0-------|-3-3-------3-3-------|
||----------------------|---------------------|


      |-3-|     |-3-|   |-3-| |-3-| |-3-| |-3-|
  Q   E E E Q   E E E   E E E E E E E E E E E E
|---------------------|---------------------------||
|---------------------|---------------------------||
|---------------------|-7-5-4-5-4---4------------o||
|-----5-4-5-----5-4-5-|-----------7---7-5-7-5-4---||
|-3---------3---------|--------------------------o||
|---------------------|---------------------------||
|---------------------|---------------------------||
|
| |3| |-3-| |3| |-3-|   |-3-| |-3-| |-3-| |-3-|
| q E E E E q E E E E   E E E E E E E E E E E E
|---------------------|---------------------------||
|---------------------|---------------------------||
|---------------------|-7-5-4-5-4---4------------o||
|-5-5-5-4-5-5-5-5-4-5-|-----------7---7-5-7-5-4---||
|-3-3-------3-3-------|--------------------------o||
|---------------------|---------------------------||
|---------------------|---------------------------||
|
| |3| |-3-| |3| |-3-|   |-3-| |-3-| |-3-| |-3-|
| q E E E E q E E E E   E E E E E E E E E E E E
|---------------------|---------------------------||
|---------------------|---------------------------||
|---------------------|--------------------------o||
|-5-5-5-4-5-5-5-5-4-5-|-9-7-5-7-5---5-------------||
|-3-3-------3-3-------|-----------9---9-7-9-7-5--o||
|---------------------|---------------------------||
|---------------------|---------------------------||


 Out-Verse
  Gtr IV
      |-3-|     |-3-|        |--3--|      |--3--|
  Q   E E E Q   E E E   Q    E  E  E Q    E  E  E
|---------------------|---------------------------|
|---------------------|---------------------------|
|---------------------|---------------------------|
|-----5-4-5-----5-4-5-|------5--4--5------5--4--5-|
|---------------------|---------------------------|
|-0---------0---------|-3------------3------------|
|---------------------|---------------------------|
|
| Gtr I
| |3| |-3-| |3| |-3-|   |3|  |--3--| |3|  |--3--|
| q E E E E q E E E E   q E  E  E  E q E  E  E  E
|---------------------|---------------------------|
|---------------------|---------------------------|
|---------------------|---------------------------|
|-----5-4-5-----5-4-5-|------5--4--5------5--4--5-|
|-2-2-------2-2-------|-5-5----------5-5----------|
|-0-0-------0-0-------|-3-3----------3-3----------|
|---------------------|---------------------------|
|
| Gtr II
| |3| |-3-| |3| |-3-|   |3|  |--3--| |3|  |--3--|
| Q E E E E Q E E E E   Q E  E  E  E Q E  E  E  E
|---------------------|---------------------------|
|-5-5-8-7-8-5-5-8-7-8-|-8-8-12-10-12-8-8-12-10-12-|
|---------------------|---------------------------|
|---------------------|---------------------------|
|---------------------|---------------------------|
|---------------------|---------------------------|
|---------------------|---------------------------|


       |--3--|      |--3--|    |--3--|  |--3--|  |--3--|  |--3--|
  Q    E  E  E Q    E  E  E    E  E  E  E  E  E  E  E  E  E  E  E
|---------------------------|---------------------------------------|
|---------------------------|---------------------------------------|
|---------------------------|--7--5--4--5--4-----4------------------|
|------5--4--5------5--4--5-|-----------------7-----7--5--7--5--4---|
|-3------------3------------|---------------------------------------|
|---------------------------|---------------------------------------|
|---------------------------|---------------------------------------|
|
| |3|  |--3--| |3|  |--3--|    |--3--|  |--3--|  |--3--|  |--3--|
| q E  E  E  E q E  E  E  E    E  E  E  E  E  E  E  E  E  E  E  E
|---------------------------|---------------------------------------|
|---------------------------|---------------------------------------|
|---------------------------|--7--5--4--5--4-----4------------------|
|-5-5--5--4--5-5-5--5--4--5-|-----------------7-----7--5--7--5--4---|
|-3-3----------3-3----------|---------------------------------------|
|---------------------------|---------------------------------------|
|---------------------------|---------------------------------------|
|
| |3|  |--3--| |3|  |--3--|    |--3--|  |--3--|  |--3--|  |--3--|
| Q E  E  E  E Q E  E  E  E    E  E  E  E  E  E  E  E  E  E  E  E
|-8-8-12-10-12-8-8-12-10-12-|---------------------------------------|
|---------------------------|-15-13-12-13-12----12------------------|
|---------------------------|----------------14----14-12-14-12-11---|
|---------------------------|---------------------------------------|
|---------------------------|---------------------------------------|
|---------------------------|---------------------------------------|
|---------------------------|---------------------------------------|


      |-3-|     |-3-|        |--3--|      |--3--|
  Q   E E E Q   E E E   Q    E  E  E Q    E  E  E
|---------------------|---------------------------|
|---------------------|---------------------------|
|---------------------|---------------------------|
|-----5-4-5-----5-4-5-|------5--4--5------5--4--5-|
|---------------------|---------------------------|
|-0---------0---------|-3------------3------------|
|---------------------|---------------------------|
|
| |3| |-3-| |3| |-3-|   |3|  |--3--| |3|  |--3--|
| q E E E E q E E E E   q E  E  E  E q E  E  E  E
|---------------------|---------------------------|
|---------------------|---------------------------|
|---------------------|---------------------------|
|-----5-4-5-----5-4-5-|------5--4--5------5--4--5-|
|-2-2-------2-2-------|-5-5----------5-5----------|
|-0-0-------0-0-------|-3-3----------3-3----------|
|---------------------|---------------------------|
|
| |3| |-3-| |3| |-3-|   |3|  |--3--| |3|  |--3--|
| Q E E E E Q E E E E   Q E  E  E  E Q E  E  E  E
|-3-3-7-5-7-3-3-7-5-7-|-7-7-10--8-10-7-7-10--8-10-|
|-5-5-8-7-8-5-5-8-7-8-|-8-8-12-10-12-8-8-12-10-12-|
|---------------------|---------------------------|
|---------------------|---------------------------|
|---------------------|---------------------------|
|---------------------|---------------------------|
|---------------------|---------------------------|


         |--3--|        |--3--|    |--3--|  |--3--|  |--3--|  |--3--|
   Q     E  E  E  Q     E  E  E    E  E  E  E  E  E  E  E  E  E  E  E
|-------------------------------|---------------------------------------|
|-------------------------------|---------------------------------------|
|-------------------------------|--7--5--4--5--4-----4------------------|
|--------5--4--5--------5--4--5-|-----------------7-----7--5--7--5--4---|
|--3--------------3-------------|---------------------------------------|
|-------------------------------|---------------------------------------|
|-------------------------------|---------------------------------------|
|
|  |3-|  |--3--|  |3-|  |--3--|    |--3--|  |--3--|  |--3--|  |--3--|
|  q  E  E  E  E  q  E  E  E  E    E  E  E  E  E  E  E  E  E  E  E  E
|-------------------------------|---------------------------------------|
|-------------------------------|---------------------------------------|
|-------------------------------|--7--5--4--5--4-----4------------------|
|--5--5--5--4--5--5--5--5--4--5-|-----------------7-----7--5--7--5--4---|
|--3--3-----------3--3----------|---------------------------------------|
|-------------------------------|---------------------------------------|
|-------------------------------|---------------------------------------|
|
|  |3-|  |--3--|  |3-|  |--3--|    |--3--|  |--3--|  |--3--|  |--3--|
|  Q  E  E  E  E  Q  E  E  E  E    E  E  E  E  E  E  E  E  E  E  E  E
|-12-12-15-14-15-12-12-15-14-15-|-14-12-10-12-10----10------------------|
|-13-13-17-15-17-13-13-17-15-17-|-15-13-12-13-12-13-12-13-12-13-12-10---|
|-------------------------------|----------------14----14-12-14-12-11---|
|-------------------------------|---------------------------------------|
|-------------------------------|---------------------------------------|
|-------------------------------|---------------------------------------|
|-------------------------------|---------------------------------------|


  Gtrs I, II, III
  |-3-|
  q q q h
|------------*|
|------------*|
|------------*|
|-------2----*|
|-2-2-2-2----*|
|-0-0-0-0----*|
|------------*|



Duration Legend
---------------
W - whole; H - half; Q - quarter; E - 8th; S - 16th; T - 32nd; X - 64th; a - acciaccatura
+ - note tied to previous; . - note dotted; .. - note double dotted
Uncapitalized letters represent notes that are staccato (1/2 duration)
Irregular groupings are notated above the duration line
Duration letters will always appear directly above the note/fret number it represents the
duration for.  Duration letters with no fret number below them represent rests.  Multi-
bar rests are notated in the form Wxn, where n is the number of bars to rest for.  Low
melody durations appear below the staff

Tablature Legend
----------------
 h   - hammer-on
 p   - pull-off
 b   - bend
 pb  - pre-bend
 r   - bend release (if no number after the r, then release immediately)
 /\  - slide into or out of (from/to "nowhere")
 s   - legato slide
 S   - shift slide
 - natural harmonic
[n]  - artificial harmonic
n(n) - tapped harmonic
 ~   - vibrato
 tr  - trill
 T   - tap
 TP  - trem. picking
 PM  - palm muting
\n/  - tremolo bar dip; n = amount to dip
 \n  - tremolo bar down
 n/  - tremolo bar up
/n\  - tremolo bar inverted dip
 =   - hold bend; also acts as connecting device for hammers/pulls
 <> - volume swell (louder/softer)
 x   - on rhythm slash represents muted slash
 o   - on rhythm slash represents single note slash

Misc Legend
-----------
 |  - bar
||  - double bar
||o - repeat start
o|| - repeat end
*|  - double bar (ending)
 :  - bar (freetime)
 $  - Segno
 &  - Coda
Tempo markers -  = BPM(8/16=s8/s16), where s8 = swing 8ths, s16 = swing 16ths





Comments


Popular Nekrogoblikon tabs & chords
Goblins Are Better Than Trolls Bass Tabs
A Feast Intro Tabs
Army Of Goblins Tabs
Goblin Island Tabs
In The Hall Of The Goblin King Tabs


Song lyrics



↑ Back to top | Tablatures and chords are parodies/interpretations of the original songs. You may use it for private study, scholarship, research or language learning purposes only
© 2014 AZChords.com Contact us | Privacy policy | DMCA | Add/correct tabs | Request tabs | Top 50 tabs