>
 >
Goblin Island

Goblin Island Guitar Tabs

Nekrogoblikon - Goblin Island chords, tabs, tablatures, lyrics

Guitar lessons | Add/correct | Request | Top 50 tabs Artists:  A B C D E F G H I J K L M N O P Q R S T U V W X Y Z 0-9

Goblin Island Guitar Tabs – Nekrogoblikon

CD, Sheet music, Poster

Do you like Goblin Island? Share with your friends now
Tabs

GOBLIN ISLAND
As recorded by Nekrogoblikon
(From the 2006 Album GOBLIN ISLAND)

	

Words by Nicholas Calonne Music by Tim Lyakhovetskiy
Arranged by Tim Lyakhovetskiy

Gtr I (B E A D G B E) - 'Untitled'
Gtr II (B E A D G B E) - 'Untitled'
Gtr III (B E A D G B E) - 'Untitled'
Gtr IV (B E A D G B E) - 'Untitled'
Gtr V (B E A D G B E) - 'Untitled'

   Intro
    Q=150
   4/4
    Gtr I
                               |-3-|
    W          W          H    Q Q Q     W
||-----------|----------|-------------|-------|
||-----------|----------|-------------|-------|
||o----------|----------|-------------|-------|
||-----------|----------|-------------|-------|
||o----------|-5--------|-------------|-------|
||--2--------|----------|-6----3-5-6--|--7----|
||-----------|----------|-------------|-------|
|
|   Gtr II
|   W          W          W              W
||-----------|----------|-------------|-------|
||-----------|----------|-------------|-------|
||o----------|----------|-------------|-------|
||-----------|----------|-------------|-------|
||o----------|----------|-------------|-------|
||--5--------|-3--------|-2-----------|-10----|
||-----------|----------|-------------|-------|
|
|   Gtr III
|   W          W          W              W
||-----------|----------|-------------|-------|
||-----------|----------|-------------|-------|
||o-2--------|-7--------|-3-----------|--7----|
||--4--------|-5--------|-4-----------|--9----|
||o-0--------|-5--------|-1-----------|--5----|
||--2--------|-3--------|-2-----------|--7----|
||-----------|----------|-------------|-------|


  W          W          +W
|----------|----------|---------||
|----------|----------|---------||
|----------|----------|--------o||
|----------|----------|---------||
|----------|----------|--------o||
|----------|----------|---------||
|-5--------|-4--------|-(4)-----||
|
| W          W          +W
|----------|----------|---------||
|----------|----------|---------||
|----------|----------|--------o||
|----------|----------|---------||
|----------|----------|--------o||
|-4--------|-6--------|-(6)-----||
|----------|----------|---------||
|
| W          W          +W
|----------|----------|---------||
|----------|----------|---------||
|----------|----------|--------o||
|-6--------|-8--------|-(8)-----||
|-7--------|-6--------|-(6)----o||
|-4--------|-6--------|-(6)-----||
|-5--------|-4--------|-(4)-----||


   Pre-Verse
   4/4
     ~~       ~
        |-3-|    |-3-|    |3| |3|  |-3-| |3|
     Q  E E E Q  E E E    E Q Q E  E E E Q E  4x
||---------------------|----------------------||
||---------------------|----------------------||
||o--------------------|---------------------o||
||---------------------|----------------------||
||o-----5-4------------|---------------------o||
||----------5-6--3-5-6-|--7--------7----------||
||--/7-----------------|----0-0-0----5-3-0-0--||
|
|    ~~       ~
|       |-3-|    |-3-|    |3| |3|  |-3-| |3|
|    Q  E E E Q  E E E    E Q Q E  E E E Q E  4x
||---------------------|----------------------||
||---------------------|----------------------||
||o--------------------|---------------------o||
||---------------------|----------------------||
||o-----5-4------5-7-8-|---------------------o||
||--/5------5-6--------|-10-------10----------||
||---------------------|----0-0-0----8-6-0-0--||


   Verse
   4/4
    Gtr I
    |-3-| |-3-| |-3-| |-3-|   |-3-| |-3-| |-3-| |-3-|
    E E E E E E E E E E E E   E E E E E E E E E E E E
||--------------------------|-------------------------|
||--------------------------|-------------------------|
||o-------------------------|-------------------------|
||--------------------------|-------------------------|
||o-------------------------|-------------------------|
||--------------3-3-3-3-3-3-|-7-7-7-7-7-7-2-2-2-2-2-2-|
||--0-0-0-0-0-0-------------|-------------------------|
|
|   Gtr II
|   |-3-| |-3-| |-3-| |-3-|   |-3-| |-3-| |-3-| |-3-|
|   E E E E E E E E E E E E   E E E E E E E E E E E E
||--------------------------|-------------------------|
||--------------------------|-------------------------|
||o-------------------------|-------------------------|
||--------------------------|-------------------------|
||o-------------2-2-2-5-5-5-|-7-7-7-5-7-5-4-4-4-5-4-2-|
||--2-2-2-4-4-4-------------|-------------------------|
||--------------------------|-------------------------|


  |-3-| |-3-| |-3-|  |--3--|    |--3--|  |--3--| |-3-| |-3-|
  E E E E E E E E E  E  E  E    E  E  E  E  E  E E E E E E E
|----------------------------|--------------------------------||
|----------------------------|--------------------------------||
|----------------------------|-------------------------------o||
|----------------------------|--------------------------------||
|----------------------------|-------------------------------o||
|-------------8-8-8-10-10-10-|-12-12-12-10-10-10-8-8-8-7-7-7--||
|-0-0-0-0-0-0----------------|--------------------------------||
|
| |-3-| |-3-| |-3-|  |--3--|    |--3--|  |--3--| |-3-| |-3-|
| E E E E E E E E E  E  E  E    E  E  E  E  E  E E E E E E E
|----------------------------|--------------------------------||
|----------------------------|--------------------------------||
|----------------------------|-------------------------------o||
|----------------------------|--------------------------------||
|-------------7-7-7--8--8--8-|-------------------7-7-7-8-8-8-o||
|----------------------------|--0--0--0--0--0--0--------------||
|-0-0-0-0-0-0----------------|--------------------------------||


   4/4
    |-3-| |-3-| |--3--|  |-3--|   |-3-| |-3-| |-3-| |-3-|
    E E E E E E E  E  E  E E  E   E E E E E E E E E E E E
||------------------------------|-------------------------|
||------------------------------|-------------------------|
||o-----------------------------|-------------------------|
||------------------------------|-------------------------|
||o-----------------------------|-------------------------|
||--------------3--3--3--3-3--3-|-7-7-7-7-7-7-2-2-2-2-2-2-|
||--0-0-0-0-0-0-----------------|-------------------------|
|
|   |-3-| |-3-| |--3--|  |-3--|   |-3-| |-3-| |-3-| |-3-|
|   E E E E E E E  E  E  E E  E   E E E E E E E E E E E E
||------------------------------|-------------------------|
||------------------------------|-------------------------|
||o-----------------------------|-------------------------|
||--------------9----------9----|-------------7-------7---|
||o-9-------9-----10-10-10---10-|-9-------9-----9-9-9---9-|
||----7-7-7---7-----------------|---7-7-7---7-------------|
||------------------------------|-------------------------|


  |-3-| |-3--|  |--3--|  |--3--|    |--3--|  |--3--|  |--3--|  |-3--|
  E E E E E  E  E  E  E  E  E  E    E  E  E  E  E  E  E  E  E  E E  E
|--------------------------------|-------------------------------------||
|--------------------------------|-------------------------------------||
|--------------------------------|------------------------------------o||
|--------------------------------|-------------------------------------||
|--------------------------------|------------------------------------o||
|---------------8--8--8-10-10-10-|-12-12-12-10-10-10--8--8--8--7-7--7--||
|-0-0-0-0-0--0-------------------|-------------------------------------||
|
| |-3-| |-3--|  |--3--|  |--3--|    |--3--|  |--3--|  |--3--|  |-3--|
| E E E E E  E  E  E  E  E  E  E    E  E  E  E  E  E  E  E  E  E E  E
|--------------------------------|-------------------------------------||
|--------------------------------|-------------------------------------||
|--------------------------------|------------------------------------o||
|--------------10----------12----|-14----------10----12----------9-----||
|-9-------9-------12-12-12----14-|----15-15-15----12----14-14-14---10-o||
|---7-7-7---10-------------------|-------------------------------------||
|--------------------------------|-------------------------------------||


 Pre-Chorus Fill
 4/4
  |--3--|  |-3--| |--3--| |3-|    |--3---|  |-3--|  |---3----|  |-3-|
  E S S E  E E  E E S S E Q  E    E  S S E  E E  E  E  S  S  E  E E E
|------------------------------|---------------------------------------|
|------------------------------|---------------------------------------|
|------------------------------|---------------------------------------|
|------------------------------|---------------------------------------|
|-7-7-7-7-10-9-10-7-7-7-7------|--7--7-7-7-10-9-10---------------------|
|-------------------------8-10-|-------------------10-10-10-10-10-8-7--|
|------------------------------|---------------------------------------|
|
|                                 >
| W                              +W
|------------------------------|---------------------------------------|
|------------------------------|---------------------------------------|
|------------------------------|---------------------------------------|
|------------------------------|---------------------------------------|
|-7----------------------------|-(7)-----------------------------------|
|-7----------------------------|-(7)-----------------------------------|
|-5----------------------------|-(5)-----------------------------------|


   Chorus
     |3-|  |-3--|  |3-|  |--3--|    |--3--|  |--3--| |3| |-3-|
     Q  E  E  E E  Q  E  E  E  E    Q     E  E  E  E Q E E E E
||-------------------------------|-----------------------------|
||-------------------------------|-----------------------------|
||o------------------------------|-----------------------------|
||-------------------------------|-----------------------------|
||o--7-------------7-------------|-10----------------9---------|
||---7--7--7--7-7--7--7--7--7--7-|-10----10-10-10-10-9-9-9-9-9-|
||---5--5--5--5-5--5--5--5--5--5-|--8-----8--8--8--8-7-7-7-7-7-|
|
|                                                    ~
|    |3-|  |3-|    |3-|  |--3--|    |--3--|  |--3--|
|    Q  E  E  Q    Q  E  E  E  E    E  E  E  E  E  E H
||-------------------------------|-----------------------------|
||-------------------------------|-----------------------------|
||o------------------------------|-----------------------------|
||-------------------------------|-----------7-----------------|
||o--7--7--7-10----9--9--9--7----|-10-10-10----10--7-9---------|
||----------------------------10-|-----------------------------|
||-------------------------------|-----------------------------|
|
|   Gtr IV
|                                                    ~
|    |3-|  |3-|    |3-|  |--3--|    |--3--|  |--3--|
|    Q  E  E  Q    Q  E  E  E  E    E  E  E  E  E  E H
||-------------------------------|-----------------------------|
||-------------------------------|-----------------------------|
||o------------------------------|-----------------------------|
||------------9------------------|-----------7-----------------|
||o-10-10-10------12-12-12-10--9-|-10-10-10----10--7-9---------|
||-------------------------------|-----------------------------|
||-------------------------------|-----------------------------|


                             2/4
   |3-|  |-3--| |3|  |-3--|
   Q  E  E  E E Q E  E  E E
|---------------------------|------------------|
|---------------------------|------------------|
|---------------------------|------------------|
|---------------------------|------------------|
|--7------------7-----------|------------------|
|--7--7--7--7-7-7-7--7--7-7-|------------------|
|--5--5--5--5-5-5-5--5--5-5-|------------------|
|
|  |3-|  |3-|   |3|  |-3--|    |-3--|  |-3--|
|  Q  E  E  Q   Q E  E  E E    E  E E  E E  E
|---------------------------|------------9h12--|
|---------------------------|---------10-------|
|---------------------------|-------9----------|
|-------------------------9-|----10------------|
|-10-10-10-10---9-9-10-12---|-12---------------|
|---------------------------|------------------|
|---------------------------|------------------|
|
|  |3-|  |3-|   |3|  |-3--|
|  Q  E  E  Q   Q E  E  E E
|---------------------------|------------------|
|---------------------------|------------------|
|---------------------------|------------------|
|--9--9--9--9-------------9-|------------------|
|---------------9-9-10-12---|------------------|
|---------------------------|------------------|
|---------------------------|------------------|


 4/4
   |3| |-3-|  |-3--| |--3--|    |--3--|  |--3--| |-3-|  |-3--|
   Q E E E E  Q    E E  E  E    Q     E  E  E  E Q   E  E  E E
|----------------------------|---------------------------------|
|----------------------------|---------------------------------|
|----------------------------|---------------------------------|
|----------------------------|---------------------------------|
|--7----------7--------------|-10----------------9-------------|
|--7-7-7-7-7--7----7-7--7--7-|-10----10-10-10-10-9---9--9--9-9-|
|--5-5-5-5-5--5----5-5--5--5-|--8-----8--8--8--8-7---7--7--7-7-|
|
|  ~~
|                               |--3--|  |--3--| |-3-|  |-3--|
|  W                            E  E  E  E  E  E E E E  E  E E
|-17-------------------------|---------------------------------|
|----------------------------|---------------------------------|
|----------------------------|---------------------------------|
|----------------------------|---------------------------------|
|----------------------------|-10-10-10-14-12-10-9-9-9-12-10-9-|
|----------------------------|---------------------------------|
|----------------------------|---------------------------------|
|
|             |-3--| |--3--|    |--3--|  |--3--| |-3-|  |-3--|
|  H          E E  E E  E  E    E  E  E  E  E  E E E E  E  E E
|------------12p9------------|---------------------------------|
|-----------------10---------|---------------------------------|
|--------------------9-------|---------------------------------|
|----------------------10----|--9--9--9-12-10--9-7-7-7-10--9-7-|
|-------------------------12-|---------------------------------|
|----------------------------|---------------------------------|
|----------------------------|---------------------------------|


   |3-|  |-3--|  |3-|  |--3--|    |--3--|  |--3--| |-3-|  |-3--|   |-3-|
   Q  E  E  E E  Q  E  E  E  E    Q     E  E  E  E Q   E  E  E E   q q q H
|------------------------------|---------------------------------|--------------||
|------------------------------|---------------------------------|--------------||
|------------------------------|---------------------------------|-9-9-9-9\----o||
|------------------------------|---------------------------------|-9-9-9-9\-----||
|--7-------------7-------------|-10----------------9-------------|-7-7-7-7\----o||
|--7--7--7--7-7--7--7--7--7--7-|-10----10-10-10-10-9---9--9--9-9-|-7-7-7-7------||
|--5--5--5--5-5--5--5--5--5--5-|--8-----8--8--8--8-7---7--7--7-7-|-5-5-5-5------||
|
|  |3-|  |3-|    |3-|  |--3--|    |--3--|  |--3--| |-3-|  |-3--|   |-3-|
|  Q  E  E  Q    Q  E  E  E  E    E  E  E  E  E  E E E E  E  E E   q q q H
|------------------------------|---------------------------------|--------------||
|------------------------------|---------------------------------|--------------||
|------------------------------|---------------------------------|-------------o||
|------------------------------|---------------------------------|-9-9-9-9\-----||
|--7--7--7-10----9--9--9--7----|-10-10-10-14-12-10-9-9-9-12-10-9-|-7-7-7-7\----o||
|---------------------------10-|---------------------------------|-0-0-0-0------||
|------------------------------|---------------------------------|--------------||
|
|  |3-|  |3-|    |3-|  |--3--|    |--3--|  |--3--| |-3-|  |-3--|   |-3-|
|  Q  E  E  Q    Q  E  E  E  E    E  E  E  E  E  E E E E  E  E E   q q q H
|------------------------------|---------------------------------|--------------||
|------------------------------|---------------------------------|--------------||
|------------------------------|---------------------------------|-4-4-4-4\----o||
|-----------9------------------|--9--9--9-12-10--9-7-7-7-10--9-7-|-5-5-5-5\-----||
|-10-10-10------12-12-12-10--9-|---------------------------------|-7-7-7-7\----o||
|------------------------------|---------------------------------|--------------||
|------------------------------|---------------------------------|--------------||


 Melodic Verse
   |---3---|  |--3--|  |---3---|  |--3--|   |--3--| |-3--|  |---3---|  |--3--|
   E  +E   E  E  E  E  E  +E   E  E  E  E   E +E  E E  E E  E  +E   E  E  E  E
|-----------------------------------------|------------------------------------|
|-----------------------------------------|------------------------------------|
|-----------------------------------------|------------------------------------|
|-----------------------------------------|------------------------------------|
|--9--(9)--9--9-10--7---------------------|------------7-5---------------------|
|----------------------8--(8)--8--8-10--7-|-5-(5)-5-5-------8--(8)--8--8--7-10-|
|-----------------------------------------|------------------------------------|
|
|  |---3---|  |--3--|  |---3---|  |--3--|   |--3--| |-3--|  |---3---|  |--3--|
|  E  +E   E  E  E  E  E  +E   E  E  E  E   E +E  E E  E E  E  +E   E  E  E  E
|-----------------------------------------|------------------------------------|
|-----------------------------------------|------------------------------------|
|-----------------------------------------|------------------------------------|
|-----------------------------------------|------------------------------------|
|-12-(12)-12-12-14-10---------------------|-----------10-9---------------------|
|---------------------12-(12)-12-12-14-10-|-8-(8)-8-8------12-(12)-12-12-10-14-|
|-----------------------------------------|------------------------------------|
|
|  |---3---|  |--3--|  |---3---|  |--3--|   |--3--| |-3--|  |---3---|  |--3--|
|  E  +E   E  E  E  E  E  +E   E  E  E  E   E +E  E E  E E  E  +E   E  E  E  E
|-----------------------------------------|------------------------------------|
|-----------------------------------------|------------------------------------|
|-----------------------------------------|------------------------------------|
|-----------------------------------------|------------------------------------|
|----------------------3--(3)--3--3--3--3-|-----------------3--(3)--3--3--3--3-|
|--2--(2)--2--2--2--2---------------------|-5-(5)-5-5--5-5---------------------|
|-----------------------------------------|------------------------------------|


   |---3---|  |--3--|  |---3---|  |--3--|    |---3---|  |--3--|  |---3---|  |--3--|
   E  +E   E  E  E  E  E  +E   E  E  E  E    E  +E   E  E  E  E  E  +E   E  E  E  E
|-----------------------------------------|--------------------------------------------|
|-----------------------------------------|--------------------------------------------|
|-----------------------------------------|----------------------7--(7)--7--7----------|
|----------------------7--(7)--7--7-10--9-|-10-(10)-10-10--9--7---------------10--9----|
|--7--(7)--7--7--9-10---------------------|--------------------------------------------|
|-----------------------------------------|--------------------------------------------|
|-----------------------------------------|--------------------------------------------|
|
|  |---3---|  |--3--|  |---3---|  |--3--|    |---3---|  |--3--|  |---3---|  |--3--|
|  E  +E   E  E  E  E  E  +E   E  E  E  E    E  +E   E  E  E  E  E  +E   E  E  E  E
|-----------------------------------------|--------------------------------------------|
|-----------------------------------------|--------------------------------------------|
|-----------------------------------------|---------------------11-(11)-11-11----------|
|---------------------10-(10)-10-10-14-12-|-14-(14)-14-14-12-10---------------14-12----|
|-10-(10)-10-10-12-14---------------------|--------------------------------------------|
|-----------------------------------------|--------------------------------------------|
|-----------------------------------------|--------------------------------------------|
|
|  |---3---|  |--3--|  |---3---|  |--3--|    |---3---|  |--3--|  |---3---|  |--3--|
|  E  +E   E  E  E  E  E  +E   E  E  E  E    E  +E   E  E  E  E  E  +E   E  E  E  E
|-----------------------------------------|--------------------------------------------|
|-----------------------------------------|--------------------------------------------|
|-----------------------------------------|--------------------------------------------|
|-----------------------------------------|--------------------------------------------|
|-----------------------------------------|--3--(3)--3--3--3--3--5--(5)--5--5--5--5----|
|--0--(0)--0--0--0--0--5--(5)--5--5--5--5-|--------------------------------------------|
|-----------------------------------------|--------------------------------------------|


   |---3---|  |--3--|  |---3---|  |--3--|    |---3---|  |--3--|  |---3---|  |--3--|
   E  +E   E  E  E  E  E  +E   E  E  E  E    E  +E   E  E  E  E  E  +E   E  E  E  E
|-----------------------------------------|-----------------------------------------|
|-----------------------------------------|-----------------------------------------|
|--9--(9)--9--9--7-------------------7----|--9--(9)--9--9--7-------------------7----|
|------------------10--9--(9)--9--9----10-|------------------10--9--(9)--9--9----10-|
|-----------------------------------------|-----------------------------------------|
|-----------------------------------------|-----------------------------------------|
|-----------------------------------------|-----------------------------------------|
|
|  |---3---|  |--3--|  |---3---|  |--3--|    |---3---|  |--3--|  |---3---|  |--3--|
|  E  +E   E  E  E  E  E  +E   E  E  E  E    E  +E   E  E  E  E  E  +E   E  E  E  E
|-----------------------------------------|-----------------------------------------|
|-----------------------------------------|-----------------------------------------|
|-12-(12)-12-12-11------------------11----|-12-(12)-12-12-11------------------11----|
|------------------14-12-(12)-12-12----14-|------------------14-12-(12)-12-12----14-|
|-----------------------------------------|-----------------------------------------|
|-----------------------------------------|-----------------------------------------|
|-----------------------------------------|-----------------------------------------|
|
|  |---3---|  |--3--|  |---3---|  |--3--|    |---3---|  |--3--|  |---3---|  |--3--|
|  E  +E   E  E  E  E  E  +E   E  E  E  E    E  +E   E  E  E  E  E  +E   E  E  E  E
|-----------------------------------------|-----------------------------------------|
|-----------------------------------------|-----------------------------------------|
|-----------------------------------------|-----------------------------------------|
|--2--(2)--2--2--2--2---------------------|--2--(2)--2--2--2--2---------------------|
|----------------------2--(2)--2--2--2--2-|----------------------2--(2)--2--2--2--2-|
|-----------------------------------------|-----------------------------------------|
|-----------------------------------------|-----------------------------------------|


                            |---3---|
  Q     Q     Q     Q       q   q   q   Q     Q
|-------------------------|----------------------------|
|-------------------------|----------------------------|
|-------------------------|----------------------------|
|-9-----7-----5-----4-----|-9---7---5---4-----5--------|
|-------------------------|----------------------------|
|-------------------------|----------------------------|
|-------------------------|----------------------------|
|
|                           |---3---|
| Q     Q     Q     Q       q   q   q   Q     Q
|-------------------------|----------------------------|
|-------------------------|----------------------------|
|-------------------------|----------------------------|
|-------------------------|----------------------------|
|-9-----7-----5-----4-----|-9---7---5---4-----5--------|
|-7-----5-----3-----2-----|-7---5---3---2-----3--------|
|-------------------------|----------------------------|
|
| |-3-| |-3-| |-3-| |-3-|   |-3-| |-3-| |-3-| |-3-|
| E E E E E E E E E E E E   E E E E E E E E E E E E
|-------------------------|----------------------------|
|-------------------------|----------------------------|
|-------------------------|----------------------------|
|-------------------------|----------------------------|
|-------------------------|----------------------------|
|-7-7-7-5-5-5-3-3-3-2-2-2-|-7-7-5-5-3-3-2-2-2-3-3-3----|
|-------------------------|----------------------------|


 Melodic Verse Modulation
   |---3---|  |--3--|  |---3---|  |--3--|   |--3--| |-3--|  |---3---|  |--3--|
   E  +E   E  E  E  E  E  +E   E  E  E  E   E +E  E E  E E  E  +E   E  E  E  E
|-----------------------------------------|------------------------------------|
|-----------------------------------------|------------------------------------|
|-----------------------------------------|------------------------------------|
|-12-(12)-12-12-13-10---------------------|-----------10-8---------------------|
|---------------------11-(11)-11-11-13-10-|-8-(8)-8-8------11-(11)-11-11-10-13-|
|-----------------------------------------|------------------------------------|
|-----------------------------------------|------------------------------------|
|
|  |---3---|  |--3--|  |---3---|  |--3--|   |--3--| |-3--|  |---3---|  |--3--|
|  E  +E   E  E  E  E  E  +E   E  E  E  E   E +E  E E  E E  E  +E   E  E  E  E
|-----------------------------------------|------------------------------------|
|-----------------------------------------|------------------------------------|
|-10-(10)-10-10-12--8---------------------|------------8-7---------------------|
|---------------------10-(10)-10-10-12--8-|-6-(6)-6-6------10-(10)-10-10--8-12-|
|-----------------------------------------|------------------------------------|
|-----------------------------------------|------------------------------------|
|-----------------------------------------|------------------------------------|
|
|  |---3---|  |--3--|  |---3---|  |--3--|   |--3--| |-3--|  |---3---|  |--3--|
|  E  +E   E  E  E  E  E  +E   E  E  E  E   E +E  E E  E E  E  +E   E  E  E  E
|-----------------------------------------|------------------------------------|
|-----------------------------------------|------------------------------------|
|-----------------------------------------|------------------------------------|
|-----------------------------------------|------------------------------------|
|-----------------------------------------|------------------------------------|
|----------------------4--(4)--4--4--4--4-|-----------------4--(4)--4--4--4--4-|
|--3--(3)--3--3--3--3---------------------|-6-(6)-6-6--6-6---------------------|


   |---3---|  |--3--|  |---3---|  |--3--|    |---3---|  |--3--|  |---3---|  |--3--|
   E  +E   E  E  E  E  E  +E   E  E  E  E    E  +E   E  E  E  E  E  +E   E  E  E  E
|-----------------------------------------|-------------------------------------------|
|-----------------------------------------|---------------------11-(11)-11-11---------|
|---------------------10-(10)-10-10-13-12-|-13-(13)-13-13-12-10---------------13-12---|
|-10-(10)-10-10-12-13---------------------|-------------------------------------------|
|-----------------------------------------|-------------------------------------------|
|-----------------------------------------|-------------------------------------------|
|-----------------------------------------|-------------------------------------------|
|
|  |---3---|  |--3--|  |---3---|  |--3--|    |---3---|  |--3--|  |---3---|  |--3--|
|  E  +E   E  E  E  E  E  +E   E  E  E  E    E  +E   E  E  E  E  E  +E   E  E  E  E
|-----------------------------------------|---------------------10-(10)-10-10---------|
|----------------------9--(9)--9--9-13-11-|-13-(13)-13-13-11--9---------------13-11---|
|--8--(8)--8--8-10-12---------------------|-------------------------------------------|
|-----------------------------------------|-------------------------------------------|
|-----------------------------------------|-------------------------------------------|
|-----------------------------------------|-------------------------------------------|
|-----------------------------------------|-------------------------------------------|
|
|  |---3---|  |--3--|  |---3---|  |--3--|    |---3---|  |--3--|  |---3---|  |--3--|
|  E  +E   E  E  E  E  E  +E   E  E  E  E    E  +E   E  E  E  E  E  +E   E  E  E  E
|-----------------------------------------|-------------------------------------------|
|-----------------------------------------|-------------------------------------------|
|-----------------------------------------|-------------------------------------------|
|-----------------------------------------|-------------------------------------------|
|-----------------------------------------|-------------------------------------------|
|-----------------------------------------|--4--(4)--4--4--4--4--6--(6)--6--6--6--6---|
|--1--(1)--1--1--1--1--6--(6)--6--6--6--6-|-------------------------------------------|


   |---3---|  |--3--|  |---3---|  |--3--|    |---3---|  |--3--|  |---3---|  |--3--|
   E  +E   E  E  E  E  E  +E   E  E  E  E    E  +E   E  E  E  E  E  +E   E  E  E  E
|-----------------------------------------|-----------------------------------------|
|-13-(13)-13-13-11------------------11----|-13-(13)-13-13-11------------------11----|
|------------------13-12-(12)-12-12----13-|------------------13-12-(12)-12-12----13-|
|-----------------------------------------|-----------------------------------------|
|-----------------------------------------|-----------------------------------------|
|-----------------------------------------|-----------------------------------------|
|-----------------------------------------|-----------------------------------------|
|
|  |---3---|  |--3--|  |---3---|  |--3--|    |---3---|  |--3--|  |---3---|  |--3--|
|  E  +E   E  E  E  E  E  +E   E  E  E  E    E  +E   E  E  E  E  E  +E   E  E  E  E
|-11-(11)-11-11-10------------------10----|-11-(11)-11-11-10------------------10----|
|------------------13-11-(11)-11-11----13-|------------------13-11-(11)-11-11----13-|
|-----------------------------------------|-----------------------------------------|
|-----------------------------------------|-----------------------------------------|
|-----------------------------------------|-----------------------------------------|
|-----------------------------------------|-----------------------------------------|
|-----------------------------------------|-----------------------------------------|
|
|  |---3---|  |--3--|  |---3---|  |--3--|    |---3---|  |--3--|  |---3---|  |--3--|
|  E  +E   E  E  E  E  E  +E   E  E  E  E    E  +E   E  E  E  E  E  +E   E  E  E  E
|-----------------------------------------|-----------------------------------------|
|-----------------------------------------|-----------------------------------------|
|-----------------------------------------|-----------------------------------------|
|-----------------------------------------|-----------------------------------------|
|--3--(3)--3--3--3--3---------------------|--3--(3)--3--3--3--3---------------------|
|----------------------3--(3)--3--3--3--3-|----------------------3--(3)--3--3--3--3-|
|-----------------------------------------|-----------------------------------------|


                               |---3----|
   Q      Q     Q     Q        q    q   q   Q      Q
|---------------------------|------------------------------|
|---------------------------|------------------------------|
|-12-----10-----8-----7-----|-12---10---8---7--------------|
|---------------------------|---------------------10-------|
|---------------------------|------------------------------|
|---------------------------|------------------------------|
|---------------------------|------------------------------|
|
|                              |---3----|
|  Q      Q     Q     Q        q    q   q   Q      Q
|---------------------------|------------------------------|
|---------------------------|------------------------------|
|---------------------------|------------------------------|
|-12-----10-----8-----7-----|-12---10---8---7------5-------|
|-10------8-----6-----5-----|-10----8---6---5------3-------|
|---------------------------|------------------------------|
|---------------------------|------------------------------|
|
|  |-3-|  |-3-| |-3-| |-3-|    |-3--| |-3-| |-3-|  |-3-|
|  E E E  E E E E E E E E E    E E  E E E E E E E  E E E
|---------------------------|------------------------------|
|---------------------------|------------------------------|
|---------------------------|------------------------------|
|---------------------------|------------------------------|
|---------------------------|------------------------------|
|---------------------------|------------------------------|
|--8-8-8--6-6-6-4-4-4-3-3-3-|--8-8--6-6-4-4-3-3-3--1-1-1---|


   Breakdown
    Q=125
   4/4
     Q.   E  Q   Q      Q.   E  Q   Q      E E  E Q     E Q
||-------------------|------------------|--------------------|
||-------------------|------------------|--------------------|
||o------------------|------------------|--------------------|
||-------------------|------------------|--------------------|
||o-------9------9---|-------9------9---|-12-9---------------|
||--/7------10-------|---------10-------|------10-9----10-9--|
||-------------------|--8---------------|--------------------|
|
|    H.          Q      H.          Q      H         E  E Q
||-------------------|------------------|--------------------|
||-------------------|------------------|--------------------|
||o------------------|------------------|--------------------|
||-------------------|------------------|--------------------|
||o--2----------[9]--|-10----------[9]--|--9-----------------|
||---2---------------|-10---------------|--9-----------10-9--|
||---0---------------|--8---------------|--7--------10-------|
|
|   Gtr III
|    W                  W                  W
||-------------------|------------------|--------------------|
||-------------------|------------------|--------------------|
||o------------------|------------------|--------------------|
||---0---------------|--9---------------|--7-----------------|
||o--2---------------|-10---------------|--9-----------------|
||---2---------------|-10---------------|--9-----------------|
||---0---------------|--8---------------|--7-----------------|


                                                         ~~
   Q.   E  Q   Q      Q.    E Q   Q     E.  E.  E  E  E  Q
|------------------|-----------------|-------------------------||
|------------------|-----------------|-------------------------||
|------------------|-----------------|------------------------o||
|------------------|-----------------|------------11-12-11-----||
|-------9------9---|-------10-9------|-10--10--10-------------o||
|-/7------10-------|-------------10--|-------------------------||
|------------------|--8--------------|-------------------------||
|
|                                                        ~~
|  H.          Q      H.          Q     E.  E.  E  E  E  Q
|------------------|-----------------|-------------------------||
|------------------|-----------------|-------------------------||
|------------------|-----------------|------------------------o||
|------------------|-----------------|-------------------------||
|--2----------[9]--|-10--------------|------------------------o||
|--2---------------|-10----------10--|-------------9-10--9-----||
|--0---------------|--8--------------|--8---8---8--------------||
|
|                                                        ~~
|  W                  W                 E.  E.  E  E  E  Q
|------------------|-----------------|-------------------------||
|------------------|-----------------|-------------------------||
|------------------|-----------------|------------------------o||
|--0---------------|--9--------------|-------------------------||
|--2---------------|-10--------------|------------------------o||
|--2---------------|-10--------------|-------------9-10--9-----||
|--0---------------|--8--------------|--8---8---8--------------||


 Solo Buildup
  Q=120
 6/8
  S S S S S S S S S S S S   S S S S S S S S S S S S
|-------------------------|-------------------------|
|-------------------------|-------------------------|
|-------------------------|-------------------------|
|-------------------------|-------------------------|
|-7---7---7---6---6---6---|-7---7---7---4---4---4---|
|---5---5---5---4---4---4-|---5---5---5---5---5---5-|
|-------------------------|-------------------------|


  S S S S S S S S S S S S   S S S S S S S S S S S S
|-------------------------|--------------------------|
|-------------------------|--------------------------|
|-------------------------|--------------------------|
|-------------------------|--------------------------|
|-7---7---7---6---6---6---|-4---4---6---7---6---4----|
|---5---5---5---4---4---4-|---5---5---5---5---5---5--|
|-------------------------|--------------------------|


  S S S S S S S S S S S S   S S S S S S S S S S S S
|-------------------------|-------------------------|
|-------------------------|-------------------------|
|-------------------------|-------------------------|
|-------------------------|-------------------------|
|-7---7---7---6---6---6---|-7---7---7---4---4---4---|
|---5---5---5---4---4---4-|---5---5---5---5---5---5-|
|-------------------------|-------------------------|
|
| S S S S S S S S S S S S   S S S S S S S S S S S S
|-------------------------|-------------------------|
|-------------------------|-------------------------|
|-------------------------|-------------------------|
|-------------------------|-------------------------|
|-7---7---7---6---6---6---|-7---7---7---4---4---4---|
|---5---5---5---4---4---4-|---5---5---5---5---5---5-|
|-------------------------|-------------------------|


  S S S S S S S S S S S S   S S S S S S S S S S E
|-------------------------|-----------------------|
|-------------------------|-----------------------|
|-------------------------|-----------------------|
|-------------------------|-----------------------|
|-7---7---7---6---6---6---|-4---4---6---7---6---9-|
|---5---5---5---4---4---4-|---5---5---5---5---5---|
|-------------------------|-----------------------|
|
| S S S S S S S S S S S S   S S S S S S S S S S E
|-------------------------|-----------------------|
|-------------------------|-----------------------|
|-------------------------|-----------------------|
|-------------------------|-----------------------|
|-7---7---7---6---6---6---|-4---4---6---7---6---9-|
|---5---5---5---4---4---4-|---5---5---5---5---5---|
|-------------------------|-----------------------|


 Solo
 1/4       4/4
  S S S S     S S  S  S  S  S  S S  S S  S  S  S S  S S
|---------|---------------------------------------------|
|---------|---------------------------------------------|
|---------|---------------------------------------------|
|---------|--------9-----------9------------------------|
|-9-------|---9----------9----------9-------------------|
|---7-7-7-|-----7-----7-----7----7----7-10--9--7-4--4-4-|
|---------|---------------------------------------------|
|
|                                                ~~
|             E    S  S  S  E.      E    S  S  S E.
|---------|---------------------------------------------|
|---------|-------12-10----12---------------------------|
|---------|-/11---------11---------11----9--------------|
|---------|--------------------------------12-11-9------|
|---------|---------------------------------------------|
|---------|---------------------------------------------|
|---------|---------------------------------------------|


    S S S  S S  S S S S S S S S S  S S
|---------------------------------------|
|---------------------------------------|
|---------------------------------------|
|-------6---------6---------------------|
|---6--------6--------6-----------------|
|-----4----4----4---4---4-7-5-4-7--7-7--|
|---------------------------------------|
|
|                               ~~
|   E   S  S S  E   E   E   S S E.
|---------------------------------------|
|---------------------------------------|
|---------------------------------------|
|-------9---------------------7-6-------|
|-/11-----11-9-11---6---7---9-----------|
|---------------------------------------|
|---------------------------------------|


  S S S S S S S S S S  S S S S S S   S S  S S S S  S S S  S  S S S S  S S
|----------------------------------|--------------------------------------|
|----------------------------------|--------------------------------------|
|----------------------------------|--------------------------------------|
|-----9-------9--------------------|------6--------6----------------------|
|-9-------9-------9----------------|-6--------6--------6------------------|
|---7---7---7---7---7-10-9-7-4-4-4-|---4----4---4----4----4--7-5-4-7--7-7-|
|----------------------------------|--------------------------------------|
|
|                                    ~          ~~~~~~~~~~
| S S S S S S S S S S  S S S S S S   E    S S S E.     E     S S S E.
|----------------------------------|-----10p7---------------10p7----------|
|--------------------------------7-|-9--------8-9------9\--------8-9------|
|-------------------6------6-8-9---|--------------------------------------|
|-------6-----6-8-9----9-8---------|--------------------------------------|
|-6-7-9---9-7----------------------|--------------------------------------|
|----------------------------------|--------------------------------------|
|----------------------------------|--------------------------------------|


   S  S  S  S  S  S  S  S  S  S  S  S  S  S  S  S
|-------------------------------------------------|
|-------------------------------------------------|
|-------------------------------------------------|
|--------9-----------9----------------------------|
|--9-----------9-----------9----------------------|
|-----7-----7-----7-----7-----7-10--9--7--4--4--4-|
|-------------------------------------------------|
|
|                    T
|  S  S  S  S  S  S  S  S  S  S  S  S  S  S  S  S
|-------------10h14h19p14p10----------------------|
|----------12----------------12----------------12-|
|-------11----------------------11----------11----|
|----12----------------------------12----12-------|
|-14----------------------------------14----------|
|-------------------------------------------------|
|-------------------------------------------------|


   S  S  S  S  S  S  S  S  e Q.
|----------------------------------|
|----------------------------------|
|----------------------------------|
|--------6-----------6-------------|
|--6-----------6-----------6-------|
|-----4-----4-----4-----4----------|
|----------------------------------|
|
|        T
|  S  S  S  S  S  S  S  S  e Q.
|-10h14p10----------10h14h19-------|
|----------12----12----------------|
|-------------11-------------------|
|----------------------------------|
|----------------------------------|
|----------------------------------|
|----------------------------------|


   Chorus
    Q=150
   4/4
     |3-|  |-3--|  |3-|  |--3--|    |--3--|  |--3--| |3| |-3-|
     Q  E  E  E E  Q  E  E  E  E    Q     E  E  E  E Q E E E E
||-------------------------------|-----------------------------|
||-------------------------------|-----------------------------|
||o------------------------------|-----------------------------|
||-------------------------------|-----------------------------|
||o--7-------------7-------------|-10----------------9---------|
||---7--7--7--7-7--7--7--7--7--7-|-10----10-10-10-10-9-9-9-9-9-|
||---5--5--5--5-5--5--5--5--5--5-|--8-----8--8--8--8-7-7-7-7-7-|
|
|                                                    ~
|    |3-|  |3-|    |3-|  |--3--|    |--3--|  |--3--|
|    Q  E  E  Q    Q  E  E  E  E    E  E  E  E  E  E H
||-------------------------------|-----------------------------|
||-------------------------------|-----------------------------|
||o------------------------------|-----------------------------|
||-------------------------------|-----------7-----------------|
||o--7--7--7-10----9--9--9--7----|-10-10-10----10--7-9---------|
||----------------------------10-|-----------------------------|
||-------------------------------|-----------------------------|
|
|   Gtr IV
|                                                    ~
|    |3-|  |3-|    |3-|  |--3--|    |--3--|  |--3--|
|    Q  E  E  Q    Q  E  E  E  E    E  E  E  E  E  E H
||-------------------------------|-----------------------------|
||-------------------------------|-----------------------------|
||o------------------------------|-----------------------------|
||------------9------------------|-----------7-----------------|
||o-10-10-10------12-12-12-10--9-|-10-10-10----10--7-9---------|
||-------------------------------|-----------------------------|
||-------------------------------|-----------------------------|


                             2/4
   |3-|  |-3--| |3|  |-3--|
   Q  E  E  E E Q E  E  E E
|---------------------------|-----------------|
|---------------------------|-----------------|
|---------------------------|-----------------|
|---------------------------|-----------------|
|--7------------7-----------|-----------------|
|--7--7--7--7-7-7-7--7--7-7-|-----------------|
|--5--5--5--5-5-5-5--5--5-5-|-----------------|
|
|  |3-|  |3-|   |3|  |-3--|    |-3--|  |-3--|
|  Q  E  E  Q   Q E  E  E E    E  E E  E E  E
|---------------------------|------------9h12-|
|---------------------------|---------10------|
|---------------------------|-------9---------|
|-------------------------9-|----10-----------|
|-10-10-10-10---9-9-10-12---|-12--------------|
|---------------------------|-----------------|
|---------------------------|-----------------|
|
|  |3-|  |3-|   |3|  |-3--|
|  Q  E  E  Q   Q E  E  E E
|---------------------------|-----------------|
|---------------------------|-----------------|
|---------------------------|-----------------|
|--9--9--9--9-------------9-|-----------------|
|---------------9-9-10-12---|-----------------|
|---------------------------|-----------------|
|---------------------------|-----------------|


 4/4
   |3| |-3-|  |-3--| |--3--|    |--3--|  |--3--| |-3-|  |-3--|
   Q E E E E  Q    E E  E  E    Q     E  E  E  E Q   E  E  E E
|----------------------------|---------------------------------|
|----------------------------|---------------------------------|
|----------------------------|---------------------------------|
|----------------------------|---------------------------------|
|--7----------7--------------|-10----------------9-------------|
|--7-7-7-7-7--7----7-7--7--7-|-10----10-10-10-10-9---9--9--9-9-|
|--5-5-5-5-5--5----5-5--5--5-|--8-----8--8--8--8-7---7--7--7-7-|
|
|  ~~
|                               |--3--|  |--3--| |-3-|  |-3--|
|  W                            E  E  E  E  E  E E E E  E  E E
|-17-------------------------|---------------------------------|
|----------------------------|---------------------------------|
|----------------------------|---------------------------------|
|----------------------------|---------------------------------|
|----------------------------|-10-10-10-14-12-10-9-9-9-12-10-9-|
|----------------------------|---------------------------------|
|----------------------------|---------------------------------|
|
|             |-3--| |--3--|    |--3--|  |--3--| |-3-|  |-3--|
|  H          E E  E E  E  E    E  E  E  E  E  E E E E  E  E E
|------------12p9------------|---------------------------------|
|-----------------10---------|---------------------------------|
|--------------------9-------|---------------------------------|
|----------------------10----|--9--9--9-12-10--9-7-7-7-10--9-7-|
|-------------------------12-|---------------------------------|
|----------------------------|---------------------------------|
|----------------------------|---------------------------------|


   |3-|  |-3--|  |3-|  |--3--|    |--3--|  |--3--| |-3-|  |-3--|   |-3-|
   Q  E  E  E E  Q  E  E  E  E    Q     E  E  E  E Q   E  E  E E   q q q H
|------------------------------|---------------------------------|--------------||
|------------------------------|---------------------------------|--------------||
|------------------------------|---------------------------------|-9-9-9-9\----o||
|------------------------------|---------------------------------|-9-9-9-9\-----||
|--7-------------7-------------|-10----------------9-------------|-7-7-7-7\----o||
|--7--7--7--7-7--7--7--7--7--7-|-10----10-10-10-10-9---9--9--9-9-|--------------||
|--5--5--5--5-5--5--5--5--5--5-|--8-----8--8--8--8-7---7--7--7-7-|--------------||
|
|  |3-|  |3-|    |3-|  |--3--|    |--3--|  |--3--| |-3-|  |-3--|   |-3-|
|  Q  E  E  Q    Q  E  E  E  E    E  E  E  E  E  E E E E  E  E E   q q q H
|------------------------------|---------------------------------|--------------||
|------------------------------|---------------------------------|--------------||
|------------------------------|---------------------------------|-------------o||
|------------------------------|---------------------------------|-9-9-9-9\-----||
|--7--7--7-10----9--9--9--7----|-10-10-10-14-12-10-9-9-9-12-10-9-|-7-7-7-7\----o||
|---------------------------10-|---------------------------------|-0-0-0-0------||
|------------------------------|---------------------------------|--------------||
|
|  |3-|  |3-|    |3-|  |--3--|    |--3--|  |--3--| |-3-|  |-3--|   |-3-|
|  Q  E  E  Q    Q  E  E  E  E    E  E  E  E  E  E E E E  E  E E   q q q H
|------------------------------|---------------------------------|--------------||
|------------------------------|---------------------------------|--------------||
|------------------------------|---------------------------------|-4-4-4-4\----o||
|-----------9------------------|--9--9--9-12-10--9-7-7-7-10--9-7-|-5-5-5-5\-----||
|-10-10-10------12-12-12-10--9-|---------------------------------|-7-7-7-7\----o||
|------------------------------|---------------------------------|--------------||
|------------------------------|---------------------------------|--------------||


   Verse
   4/4
    |-3-| |-3-| |-3-| |-3-|   |-3-| |-3-| |-3-| |-3-|
    E E E E E E E E E E E E   E E E E E E E E E E E E
||--------------------------|-------------------------|
||--------------------------|-------------------------|
||o-------------------------|-------------------------|
||--------------------------|-------------------------|
||o-------------------------|-------------------------|
||--------------3-3-3-3-3-3-|-7-7-7-7-7-7-2-2-2-2-2-2-|
||--0-0-0-0-0-0-------------|-------------------------|
|
|   |-3-| |-3-| |-3-| |-3-|   |-3-| |-3-| |-3-| |-3-|
|   E E E E E E E E E E E E   E E E E E E E E E E E E
||--------------------------|-------------------------|
||--------------------------|-------------------------|
||o-------------------------|-------------------------|
||--------------------------|-------------------------|
||o-------------2-2-2-5-5-5-|-7-7-7-5-7-5-4-4-4-5-4-2-|
||--2-2-2-4-4-4-------------|-------------------------|
||--------------------------|-------------------------|


  |-3-| |-3-| |-3-|  |--3--|    |--3--|  |--3--| |-3-| |-3-|
  E E E E E E E E E  E  E  E    E  E  E  E  E  E E E E E E E
|----------------------------|--------------------------------||
|----------------------------|--------------------------------||
|----------------------------|-------------------------------o||
|----------------------------|--------------------------------||
|----------------------------|-------------------------------o||
|-------------8-8-8-10-10-10-|-12-12-12-10-10-10-8-8-8-7-7-7--||
|-0-0-0-0-0-0----------------|--------------------------------||
|
| |-3-| |-3-| |-3-|  |--3--|    |--3--|  |--3--| |-3-| |-3-|
| E E E E E E E E E  E  E  E    E  E  E  E  E  E E E E E E E
|----------------------------|--------------------------------||
|----------------------------|--------------------------------||
|----------------------------|-------------------------------o||
|----------------------------|--------------------------------||
|-------------7-7-7--8--8--8-|-------------------7-7-7-8-8-8-o||
|----------------------------|--0--0--0--0--0--0--------------||
|-0-0-0-0-0-0----------------|--------------------------------||


   4/4
    |-3-| |-3-| |--3--|  |-3--|   |-3-| |-3-| |-3-| |-3-|
    E E E E E E E  E  E  E E  E   E E E E E E E E E E E E
||------------------------------|-------------------------|
||------------------------------|-------------------------|
||o-----------------------------|-------------------------|
||------------------------------|-------------------------|
||o-----------------------------|-------------------------|
||--------------3--3--3--3-3--3-|-7-7-7-7-7-7-2-2-2-2-2-2-|
||--0-0-0-0-0-0-----------------|-------------------------|
|
|   |-3-| |-3-| |--3--|  |-3--|   |-3-| |-3-| |-3-| |-3-|
|   E E E E E E E  E  E  E E  E   E E E E E E E E E E E E
||------------------------------|-------------------------|
||------------------------------|-------------------------|
||o-----------------------------|-------------------------|
||--------------9----------9----|-------------7-------7---|
||o-9-------9-----10-10-10---10-|-9-------9-----9-9-9---9-|
||----7-7-7---7-----------------|---7-7-7---7-------------|
||------------------------------|-------------------------|


  |-3-| |-3--|  |--3--|  |--3--|    |--3--|  |--3--|  |--3--|  |-3--|
  E E E E E  E  E  E  E  E  E  E    E  E  E  E  E  E  E  E  E  E E  E
|--------------------------------|-------------------------------------||
|--------------------------------|-------------------------------------||
|--------------------------------|------------------------------------o||
|--------------------------------|-------------------------------------||
|--------------------------------|------------------------------------o||
|---------------8--8--8-10-10-10-|-12-12-12-10-10-10--8--8--8--7-7--7--||
|-0-0-0-0-0--0-------------------|-------------------------------------||
|
| |-3-| |-3--|  |--3--|  |--3--|    |--3--|  |--3--|  |--3--|  |-3--|
| E E E E E  E  E  E  E  E  E  E    E  E  E  E  E  E  E  E  E  E E  E
|--------------------------------|-------------------------------------||
|--------------------------------|-------------------------------------||
|--------------------------------|------------------------------------o||
|--------------10----------12----|-14----------10----12----------9-----||
|-9-------9-------12-12-12----14-|----15-15-15----12----14-14-14---10-o||
|---7-7-7---10-------------------|-------------------------------------||
|--------------------------------|-------------------------------------||


   Outro Breakdown
   4/4                   5/4
    S S e S S e E e E E   S S e Q  +E  E H     4x
||----------------------|----------------------||
||----------------------|----------------------||
||o---------------------|---------------------o||
||----------------------|----------------------||
||o-7-7-7-7-7-7---7---5-|-3-3-3-2------3------o||
||--0-0-0-0-0-0---------|-1-1-1-1--(1)---------||
||----------------------|----------------------||
|
|   S S e S S e E e E E   S S e Q  +E  E H     4x
||----------------------|----------------------||
||----------------------|----------------------||
||o---------------------|---------------------o||
||----------------------|-2-2-2-3--(3)-5-------||
||o-2-2-2-2-2-2---2---2-|-3-3-3-2--(2)--------o||
||--0-0-0-0-0-0---0---0-|----------------------||
||----------------------|----------------------||


 Pre-Verse Reprise
 4/4
   ~~       ~
      |-3-|    |-3-|
   Q  E E E Q  E E E    q  H.
|--------------------|-----------*|
|--------------------|-----------*|
|--------------------|-----------*|
|--------------------|-----------*|
|-----5-4------------|-----------*|
|---------5-6--3-5-6-|--7--------*|
|-/7-----------------|-----------*|
|
|  ~~       ~
|     |-3-|    |-3-|
|  Q  E E E Q  E E E    q  H.
|--------------------|-----------*|
|--------------------|-----------*|
|--------------------|-----------*|
|--------------------|-----------*|
|-----5-4------5-7-8-|-----------*|
|-/5------5-6--------|-10--------*|
|--------------------|-----------*|



Duration Legend
---------------
W - whole; H - half; Q - quarter; E - 8th; S - 16th; T - 32nd; X - 64th; a - acciaccatura
+ - note tied to previous; . - note dotted; .. - note double dotted
Uncapitalized letters represent notes that are staccato (1/2 duration)
Irregular groupings are notated above the duration line
Duration letters will always appear directly above the note/fret number it represents the
duration for.  Duration letters with no fret number below them represent rests.  Multi-
bar rests are notated in the form Wxn, where n is the number of bars to rest for.  Low
melody durations appear below the staff

Tablature Legend
----------------
 h   - hammer-on
 p   - pull-off
 b   - bend
 pb  - pre-bend
 r   - bend release (if no number after the r, then release immediately)
 /\  - slide into or out of (from/to "nowhere")
 s   - legato slide
 S   - shift slide
 - natural harmonic
[n]  - artificial harmonic
n(n) - tapped harmonic
 ~   - vibrato
 tr  - trill
 T   - tap
 TP  - trem. picking
 PM  - palm muting
\n/  - tremolo bar dip; n = amount to dip
 \n  - tremolo bar down
 n/  - tremolo bar up
/n\  - tremolo bar inverted dip
 =   - hold bend; also acts as connecting device for hammers/pulls
 <> - volume swell (louder/softer)
 x   - on rhythm slash represents muted slash
 o   - on rhythm slash represents single note slash

Misc Legend
-----------
 |  - bar
||  - double bar
||o - repeat start
o|| - repeat end
*|  - double bar (ending)
 :  - bar (freetime)
 $  - Segno
 &  - Coda
Tempo markers -  = BPM(8/16=s8/s16), where s8 = swing 8ths, s16 = swing 16ths





Comments


Popular Nekrogoblikon tabs & chords
Goblins Are Better Than Trolls Bass Tabs
A Feast Intro Tabs
Army Of Goblins Tabs
Goblins Ahoy Tabs
In The Hall Of The Goblin King Tabs


Song lyrics



↑ Back to top | Tablatures and chords are parodies/interpretations of the original songs. You may use it for private study, scholarship, research or language learning purposes only
© 2014 AZChords.com Contact us | Privacy policy | DMCA | Add/correct tabs | Request tabs | Top 50 tabs