>
 >
Army Of Goblins

Army Of Goblins Guitar Tabs

Nekrogoblikon - Army Of Goblins chords, tabs, tablatures, lyrics

Guitar lessons | Add/correct | Request | Top 50 tabs Artists:  A B C D E F G H I J K L M N O P Q R S T U V W X Y Z 0-9

Army Of Goblins Guitar Tabs – Nekrogoblikon

CD, Sheet music, Poster

Do you like Army Of Goblins? Share with your friends now
Tabs

ARMY OF GOBLINS
As recorded by Nekrogoblikon
(From the 2006 Album GOBLIN ISLAND)

        

Words by Tim Lyakhovetskiy Music by Nicholas Calonne and Tim Lyakhovetskiy

Gtr I (B E A D G B E) - 'Untitled'
Gtr II (B E A D G B E) - 'Untitled'
Gtr III (B E A D G B E) - 'Untitled'
Gtr IV (B E A D G B E) - 'Untitled'
Gtr V (B E A D G B E) - 'Untitled'
Gtr VI (B E A D G B E) - 'Untitled'

 Intro
  Q=145
  Gtr IV
  T   T   T   T   T   T   T   T     T   T   T   T   T   T   T   T
  S S S S S S S S S S S S S S S S   S S S S S S S S S S S S S S S S
|---------------------------------|---------------------------------|
|---------------------------------|---------------------------------|
|---------------------------------|---------------------------------|
|---------------------------------|---------------------------------|
|-9-6-9-6-9-6-8-6-9-6-8-6-9-6-8-6-|-9-4-9-4-9-4-8-4-9-4-8-4-9-4-8-4-|
|---------------------------------|---------------------------------|
|---------------------------------|---------------------------------|


   T    T    T   T    T   T    T   T     T   T   T   T   T    T   T   T
   S S  S S  S S S S  S S S S  S S S S   S S S S S S S S S S  S S S S S S
|--------------------------------------|----------------------------------|
|--------------------------------------|----------------------------------|
|--------------------------------------|----------------------------------|
|--------------------------------------|-9-6-9-6-9-6-8-6-9-4-11-4-9-4-8-4-|
|-11-2-11-2-11-2-9-2-11-2-9-2-11-2-9-2-|----------------------------------|
|--------------------------------------|----------------------------------|
|--------------------------------------|----------------------------------|


    T   T   T   T   T   T   T   T     T   T   T   T   T   T   T   T
    S S S S S S S S S S S S S S S S   S S S S S S S S S S S S S S S S
||----------------------------------|----------------------------------|
||----------------------------------|----------------------------------|
||o---------------------------------|----------------------------------|
||----------------------------------|----------------------------------|
||o-9-6-9-6-9-6-8-6-9-6-8-6-9-6-8-6-|-9-4-9-4-9-4-8-4-9-4-8-4-9-4-8-4--|
||----------------------------------|----------------------------------|
||----------------------------------|----------------------------------|
|
|   Gtrs II, III
|   W                                 W
||----------------------------------|----------------------------------|
||----------------------------------|----------------------------------|
||o---------------------------------|----------------------------------|
||----------------------------------|----------------------------------|
||o-6-------------------------------|-4--------------------------------|
||--6-------------------------------|-4--------------------------------|
||--4-------------------------------|-2--------------------------------|


   T    T    T   T    T   T    T   T
   S S  S S  S S S S  S S S S  S S S S
|--------------------------------------|
|--------------------------------------|
|--------------------------------------|
|--------------------------------------|
|-11-2-11-2-11-2-9-2-11-2-9-2-11-2-9-2-|
|--------------------------------------|
|--------------------------------------|
|
|  W
|--------------------------------------|
|--------------------------------------|
|--------------------------------------|
|--9-----------------------------------|
|--9-----------------------------------|
|--7-----------------------------------|
|--------------------------------------|


 1.                                   2.
  T   T   T   T   T    T   T   T       T   T   T   T    T    T    T    T
  S S S S S S S S S S  S S S S S S     S S S S S S S S  S S  S S  S S  S S
|-----------------------------------||---------------------------------------|
|-----------------------------------||---------------------------------------|
|----------------------------------o||---------------------------------------|
|-9-6-9-6-9-6-8-6-9-4-11-4-9-4-8-4--||-9-6-9-6-9-6-8-6--9-4-11-4--9-4--8-4---|
|----------------------------------o||---------------------------------------|
|-----------------------------------||---------------------------------------|
|-----------------------------------||---------------------------------------|
|
|                                                      Gtr V
|                                                       T    T    T    T
| H               H                    H                S S  S S  S S  S S
|-----------------------------------||---------------------------------------|
|-----------------------------------||---------------------------------------|
|----------------------------------o||---------------------------------------|
|-6---------------4-----------------||-6---------------13-4-15-4-13-4-11-4---|
|-6---------------4----------------o||-6-------------------------------------|
|-4---------------2-----------------||-4-------------------------------------|
|-----------------------------------||---------------------------------------|


   Speed-metal Intro
    Gtrs IV, V
    T   T   T   T   T   T   T   T     T   T   T   T   T   T   T   T
    S S S S S S S S S S S S S S S S   S S S S S S S S S S S S S S S S
||----------------------------------|----------------------------------|
||----------------------------------|----------------------------------|
||o---------------------------------|----------------------------------|
||----------------------------------|----------------------------------|
||o-9-6-9-6-9-6-8-6-9-6-8-6-9-6-8-6-|-9-4-9-4-9-4-8-4-9-4-8-4-9-4-8-4--|
||----------------------------------|----------------------------------|
||----------------------------------|----------------------------------|
|
|   Gtrs II, III
|   S S S S S S S S S S S S S S S S   S S S S S S S S S S S S S S S S
||----------------------------------|----------------------------------|
||----------------------------------|----------------------------------|
||o---------------------------------|----------------------------------|
||----------------------------------|----------------------------------|
||o---------------------------------|----------------------------------|
||----------------------------------|----------------------------------|
||--4-4-4-4-4-4-4-4-4-4-4-4-4-4-4-4-|-2-2-2-2-2-2-2-2-2-2-2-2-2-2-2-2--|


   T    T    T   T    T   T    T   T     T   T   T   T   T    T   T   T
   S S  S S  S S S S  S S S S  S S S S   S S S S S S S S S S  S S S S S S
|--------------------------------------|-----------------------------------||
|--------------------------------------|-----------------------------------||
|--------------------------------------|----------------------------------o||
|--------------------------------------|-9-6-9-6-9-6-8-6-9-4-11-4-9-4-8-4--||
|-11-2-11-2-11-2-9-2-11-2-9-2-11-2-9-2-|----------------------------------o||
|--------------------------------------|-----------------------------------||
|--------------------------------------|-----------------------------------||
|
|  S S  S S  S S S S  S S S S  S S S S   S S S S S S S S S S  S S S S S S
|--------------------------------------|-----------------------------------||
|--------------------------------------|-----------------------------------||
|--------------------------------------|----------------------------------o||
|--------------------------------------|-----------------------------------||
|--------------------------------------|----------------------------------o||
|--7-7--7-7--7-7-7-7--7-7-7-7--7-7-7-7-|-4-4-4-4-4-4-4-4-2-2--2-2-2-2-2-2--||
|--------------------------------------|-----------------------------------||


    Gtr IV
     T    T    T    T    T    T    T    T
     S S  S S  S S  S S  S S  S S  S S  S S
||------------------------------------------|
||------------------------------------------|
||o-----------------------------------------|
||------------------------------------------|
||o--9-6--9-6--9-6--8-6--9-6--8-6--9-6--8-6-|
||------------------------------------------|
||------------------------------------------|
|
|   Gtr V
|    T    T    T    T    T    T    T    T
|    S S  S S  S S  S S  S S  S S  S S  S S
||------------------------------------------|
||------------------------------------------|
||o-----------------------------------------|
||------------------------------------------|
||o-13-6-13-6-13-6-11-6-13-6-11-6-13-6-11-6-|
||------------------------------------------|
||------------------------------------------|
|
|   Gtrs II, III
|    S S  S S  S S  S S  S S  S S  S S  S S
||------------------------------------------|
||------------------------------------------|
||o-----------------------------------------|
||------------------------------------------|
||o-----------------------------------------|
||------------------------------------------|
||---4-4--4-4--4-4--4-4--4-4--4-4--4-4--4-4-|


   T    T    T    T    T    T    T    T
   S S  S S  S S  S S  S S  S S  S S  S S
|------------------------------------------|
|------------------------------------------|
|------------------------------------------|
|------------------------------------------|
|--9-4--9-4--9-4--8-4--9-4--8-4--9-4--8-4--|
|------------------------------------------|
|------------------------------------------|
|
|  T    T    T    T    T    T    T    T
|  S S  S S  S S  S S  S S  S S  S S  S S
|------------------------------------------|
|------------------------------------------|
|------------------------------------------|
|------------------------------------------|
|-13-4-13-4-13-4-11-4-13-4-11-4-13-4-11-4--|
|------------------------------------------|
|------------------------------------------|
|
|  S S  S S  S S  S S  S S  S S  S S  S S
|------------------------------------------|
|------------------------------------------|
|------------------------------------------|
|------------------------------------------|
|------------------------------------------|
|------------------------------------------|
|--2-2--2-2--2-2--2-2--2-2--2-2--2-2--2-2--|


   T    T    T    T    T    T    T    T
   S S  S S  S S  S S  S S  S S  S S  S S
|-----------------------------------------|
|-----------------------------------------|
|-----------------------------------------|
|-----------------------------------------|
|-11-2-11-2-11-2--9-2-11-2--9-2-11-2--9-2-|
|-----------------------------------------|
|-----------------------------------------|
|
|  T    T    T    T    T    T    T    T
|  S S  S S  S S  S S  S S  S S  S S  S S
|-----------------------------------------|
|-----------------------------------------|
|-----------------------------------------|
|-----------------------------------------|
|-14-2-14-2-14-2-13-2-14-2-13-2-14-2-13-2-|
|-----------------------------------------|
|-----------------------------------------|
|
|  S S  S S  S S  S S  S S  S S  S S  S S
|-----------------------------------------|
|-----------------------------------------|
|-----------------------------------------|
|-----------------------------------------|
|-----------------------------------------|
|--7-7--7-7--7-7--7-7--7-7--7-7--7-7--7-7-|
|-----------------------------------------|


 1.                                           2.
   T    T    T    T    T    T    T    T                   ~~
   S S  S S  S S  S S  S S  S S  S S  S S      Q  Q   Q   Q
|------------------------------------------||----------------|
|------------------------------------------||----------------|
|-----------------------------------------o||----------------|
|--9-6--9-6--9-6--8-6--9-4-11-4--9-4--8-4--||--8--6----------|
|-----------------------------------------o||---------9---8--|
|------------------------------------------||----------------|
|------------------------------------------||----------------|
|
|  T    T    T    T    T    T    T    T                   ~~
|  S S  S S  S S  S S  S S  S S  S S  S S      Q  Q   Q   Q
|------------------------------------------||----------------|
|------------------------------------------||-11--9----------|
|-----------------------------------------o||--------11--10--|
|-13-6-13-6-13-6-11-6-13-4-15-4-13-4-11-4--||----------------|
|-----------------------------------------o||----------------|
|------------------------------------------||----------------|
|------------------------------------------||----------------|
|
|  S S  S S  S S  S S  S S  S S  S S  S S      Q  Q   Q   Q
|------------------------------------------||----------------|
|------------------------------------------||----------------|
|-----------------------------------------o||----------------|
|------------------------------------------||--8--6---4------|
|-----------------------------------------o||--8--6---4---8--|
|--4-4--4-4--4-4--4-4--2-2--2-2--2-2--2-2--||--6--4---2---8--|
|------------------------------------------||-------------6--|


   Pre-chorus
    Gtrs II, III
    |3| |-3-| |3| |-3-|   |3| |-3-| |3| |-3-|
    Q E E E E Q E E E E   Q E E E E Q E E E E
||----------------------|---------------------|
||----------------------|---------------------|
||o---------------------|---------------------|
||--4---------4---------|-4---------4---------|
||o-4-4-4-4-4-4-4-------|-4-4-4-4-4-4-4-------|
||--2-2-2-2-2-2-2-4-2-0-|-2-2-2-2-2-2-2-4-2-0-|
||----------------------|---------------------|


                       1.              2.
  |3| |-3-| |3| |-3-|
  Q E E E E Q E E E E   Q  Q  Q  Q      Q  Q  Q  Q
|---------------------|--------------||---------------|
|---------------------|--------------||---------------|
|---------------------|----6--------o||---------------|
|-4---------4---------|-4--6--7--6---||----8----------|
|-4-4-4-4-4-4-4-------|-4--4--7--6--o||-6--8--9--8----|
|-2-2-2-2-2-2-2-4-2-0-|-2-----5--4---||-6--6--9--8----|
|---------------------|--------------||-4-----7--6----|


   Chorus
    |3| |-3-| |3| |-3-|   |3| |-3-| |3| |-3-|
    Q E E E E Q E E E E   Q E E E E Q E E E E
||----------------------|---------------------|
||----------------------|---------------------|
||o---------------------|---------------------|
||----------------------|---------------------|
||o-6-6-6-6-6-6-6-6-6-6-|-4-4-4-4-4-4-4-4-4-4-|
||--6-6-6-6-6-6-6-6-6-6-|-4-4-4-4-4-4-4-4-4-4-|
||--4-4-4-4-4-4-4-4-4-4-|-2-2-2-2-2-2-2-2-2-2-|


  |3| |-3-| |3| |-3-|
  Q E E E E Q E E E E   Q  Q  Q  Q
|---------------------|--------------||
|---------------------|--------------||
|---------------------|-------------o||
|-9-9-9-9-9-9-9-9-9-9-|-8--6--4------||
|-9-9-9-9-9-9-9-9-9-9-|-8--6--4--8--o||
|-7-7-7-7-7-7-7-7-7-7-|-6--4--2--8---||
|---------------------|----------6---||


    Gtr I
      |3| |-3-|  |3|  |-3-|   |3| |-3-|  |3| |-3-|
      Q E E E E  Q E  E E E   Q E E E E  Q E E E E
||--------------------------|----------------------|
||--------------------------|----------------------|
||o-------------------------|----------------------|
||--------------------------|----------------------|
||o---6-6-6-6-6--6-6--6-6-6-|-4-4-4-4-4--4-4-4-4-4-|
||----6-6-6-6-6--6-6--6-6-6-|-4-4-4-4-4--4-4-4-4-4-|
||----4-4-4-4-4--4-4--4-4-4-|-2-2-2-2-2--2-2-2-2-2-|
|
|   Gtr II
|                             |3| |-3-|
|     H          Q    Q       Q E E E E  H
||--------------------------|----------------------|
||--------------------------|----------------------|
||o--/8---------10---11-----|-6-6-6h8p6-10---------|
||--------------------------|----------------------|
||o-------------------------|----------------------|
||--------------------------|----------------------|
||--------------------------|----------------------|
|
|   Gtr III
|                             |3| |-3-|
|     H          Q    Q       Q E E E E  H
||--------------------------|----------------------|
||---------------9---11-----|-6-6-6h7p6--9---------|
||o-/11---------------------|----------------------|
||--------------------------|----------------------|
||o-------------------------|----------------------|
||--------------------------|----------------------|
||--------------------------|----------------------|


  |3| |-3-| |3| |-3-|
  Q E E E E Q E E E E    Q  Q   Q   Q
|---------------------|-----------------||
|---------------------|-----------------||
|---------------------|----------------o||
|-9-9-9-9-9-9-9-9-9-9-|--8--6---4-------||
|-9-9-9-9-9-9-9-9-9-9-|--8--6---4---8--o||
|-7-7-7-7-7-7-7-7-7-7-|--6--4---2---8---||
|---------------------|-------------6---||
|
|                                   ~~
|               |-3-|
| Q   Q     Q   E E E    Q  Q   Q   Q
|---------------------|-----------------||
|---------------------|-----------------||
|-----6-----8-----6---|----------------o||
|-9-------------9---9-|--8--6-----------||
|---------------------|---------9---8--o||
|---------------------|-----------------||
|---------------------|-----------------||
|
|                                   ~~
|               |-3-|
| Q   Q     Q   E E E    Q  Q   Q   Q
|---------------------|-----------------||
|---------------------|-11--9-----------||
|-8---6-----8---8-6-8-|--------11--10--o||
|---------------------|-----------------||
|---------------------|----------------o||
|---------------------|-----------------||
|---------------------|-----------------||


 Verse
  Gtr II
                               |-3-|
  q  Q  q  q    Q   q  q  q    E E E H.         H    Q  Q
|-------------|--------------|---------------|-------------|
|-------------|--------------|---------------|-------------|
|-------------|--------------|---------------|-------------|
|-5-----5--5--|----10--8--7--|-5-5-----------|-10----7--8--|
|-5-----5--5--|----10--8--7--|-5-5-----------|-10----7--8--|
|-3-----3--3--|-----8--6--5--|-3-3-----------|--8----5--6--|
|-------------|--------------|---------------|-------------|
|
| Gtr III
|                              |-3-|
| q  Q  q  q    Q   q  q  q    E E E H.         H    Q  Q
|-------------|--------------|---------------|-------------|
|-------------|--------------|---------------|-------------|
|-------------|--------------|---------------|-------------|
|-------------|-----5--3--2--|-5-5-----------|--5----2--3--|
|-5-----5--5--|-----7--5--3--|-5-5-----------|--7----3--5--|
|-6-----6--6--|-----8--6--5--|-3-3-----------|--8----5--6--|
|-8-----8--8--|--------------|---------------|-------------|


  Gtr II
  q     Q     q     q       Q      q     q     q
|-------------------------|--------------------------|
|-------------------------|--------------------------|
|-------------------------|--------------------------|
|-5-----------5-----5-----|-------10-----8-----7-----|
|-5-----------5-----5-----|-------10-----8-----7-----|
|-3-----------3-----3-----|--------8-----6-----5-----|
|-------------------------|--------------------------|
|
| Gtr III
| q     Q     q     q       Q      q     q     q
|-------------------------|--------------------------|
|-------------------------|--------------------------|
|-------------------------|--------------------------|
|-------------------------|--------5-----3-----2-----|
|-5-----------5-----5-----|--------7-----5-----3-----|
|-6-----------6-----6-----|--------8-----6-----5-----|
|-8-----------8-----8-----|--------------------------|
|
| Gtr I
| |-3-| |-3-| |-3-| |-3-|   |-3-|  |-3-| |-3-| |-3-|
| E E E E E E E E E E E E   E E E  E E E E E E E E E
|-------------------------|--------------------------|
|-------------------------|--------------------------|
|-------------------------|--------------------------|
|-8-7-5-------8-7-5-8-7-5-|--------8-5-7-8-7-5-------|
|-------8-7-5-------------|-8-7-5--------------8-7-5-|
|-------------------------|--------------------------|
|-------------------------|--------------------------|


  |-3-|
  E E E H.                    H           Q     Q
|--------------------------|-----------------------------|
|--------------------------|-----------------------------|
|--------------------------|-----------------------------|
|-5-5----------------------|-10-----------7-----8--------|
|-5-5----------------------|-10-----------7-----8--------|
|-3-3----------------------|--8-----------5-----6--------|
|--------------------------|-----------------------------|
|
| |-3-|
| E E E H.                    H           Q     Q
|--------------------------|-----------------------------|
|--------------------------|-----------------------------|
|--------------------------|-----------------------------|
|-5-5----------------------|--5-----------2-----3--------|
|-5-5----------------------|--7-----------3-----5--------|
|-3-3----------------------|--8-----------5-----6--------|
|--------------------------|-----------------------------|
|
| |-3-| |-3--| |-3-| |-3-|    |-3-| |-3-| |-3-| |-3-|
| E E E E  E E E E E E E E    E E E E E E E E E E E E
|--------------------------|-----------------------------|
|--------------------------|-----------------------------|
|--------------------------|-----------------------------|
|-8-7-5--------8-7-5-8-7-5-|--------8-5-7-8-7-5----------|
|-------8--7-5-------------|--8-7-5-------------8-7-5----|
|--------------------------|-----------------------------|
|--------------------------|-----------------------------|


 Sweep Fill
  Gtr I
   H
|---------------------------------------------------------|
|---------------------------------------------------------|
|---------------------------------------------------------|
|--5------------------------------------------------------|
|--5------------------------------------------------------|
|--3------------------------------------------------------|
|---------------------------------------------------------|
|
| Gtr II
|  |-3--|  |-3--|  |---3---|                   |---3---|
|  E  E E  E  E E  S   S   S   S   S   S   S   S   S   S
|---------------------------------<7>-<7>-----------------|
|-----------------------------<7>---------<7>-------------|
|-------------------------<7>-----------------<7>---------|
|--8--7-5-------------<7>-------------------------<7>-----|
|----------8--7-5-<7>---------------------------------<7>-|
|---------------------------------------------------------|
|---------------------------------------------------------|
|
| Gtr III
|  |-3--|  |-3--|  |---3---|                   |---3---|
|  E  E E  E  E E  S   S   S   S   S   S   S   S   S   S
|---------------------------------<7>-<7>-----------------|
|-----------------------------<7>---------<7>-------------|
|-------------------------<7>-----------------<7>---------|
|-12-10-8-------------<7>-------------------------<7>-----|
|---------12-10-8-<7>---------------------------------<7>-|
|---------------------------------------------------------|
|---------------------------------------------------------|


   Verse Bridge
     |-3--|  |-3--|  |-3--|  |-3--|    |-3--|  |-3--|  |-3--|  |-3--|
     E  E E  E  E E  E  E E  E  E E    E  E E  E E  E  E  E E  E  E E  3x
||----------------------------------|----------------------------------||
||----------------------------------|----------------------------------||
||o---------------------------------|---------------------------------o||
||----------------------------------|----------------------------------||
||o---------------------------------|---------------------------------o||
||---3--3-3--3--3-3--3--3-3--3--3-3-|--6--6-6--8-8--8--6--6-6--5--5-5--||
||----------------------------------|----------------------------------||
|
|    |-3--|  |-3--|  |-3--|  |-3--|    |-3--|  |-3--|  |-3--|  |-3--|
|    E  E E  E  E E  E  E E  E  E E    E  E E  E E  E  E  E E  E  E E  3x
||----------------------------------|----------------------------------||
||----------------------------------|----------------------------------||
||o---------------------------------|---------------------------------o||
||---8--7-5----------8--7-5--8--7-5-|----------8-5--7--8--7-5----------||
||o----------8--7-5-----------------|--8--7-5------------------8--7-5-o||
||----------------------------------|----------------------------------||
||----------------------------------|----------------------------------||
|
|    |-3--|  |-3--|  |-3--|  |-3--|    |-3--|  |-3--|  |-3--|  |-3--|
|    E  E E  E  E E  E  E E  E  E E    E  E E  E E  E  E  E E  E  E E  3x
||----------------------------------|----------------------------------||
||----------------------------------|----------------------------------||
||o---------------------------------|---------------------------------o||
||--12-10-8---------12-10-8-12-10-8-|---------12-8-10-12-10-8----------||
||o---------12-10-8-----------------|-12-10-8-----------------12-10-8-o||
||----------------------------------|----------------------------------||
||----------------------------------|----------------------------------||


   |-3--|  |-3--|  |-3--|  |-3--|    |-3--|  |-3--|  |-3--|  |-3--|
   E  E E  E  E E  E  E E  E  E E    E  E E  E  E E  E  E E  E  E E
|---------------------------------|---------------------------------|
|---------------------------------|---------------------------------|
|---------------------------------|---------------------------------|
|---------------------------------|---------------------------------|
|---------------------------------|---------------------------------|
|--3--3-3--3--3-3--3--3-3--3--3-3-|--6--6-6--8--8-8--6--6-6--5--5-5-|
|---------------------------------|---------------------------------|
|
|  |-3--|  |-3--|  |-3--|  |-3--|    |-3--|  |-3--|  |-3--|  |-3--|
|  E  E E  E  E E  E  E E  E  E E    E  E E  E  E E  E  E E  E  E E
|---------------------------------|---------------------------------|
|---------------------------------|---------------------------------|
|---------------------------------|---------------------------------|
|--8--7-5----------8--7-5--8--7-5-|----------8--7-5-----------------|
|----------8--7-5-----------------|--8--7-5----------8--7-5---------|
|---------------------------------|--------------------------8--6-5-|
|---------------------------------|---------------------------------|
|
|  |-3--|  |-3--|  |-3--|  |-3--|    |-3--|  |-3--|  |-3--|  |-3--|
|  E  E E  E  E E  E  E E  E  E E    E  E E  E  E E  E  E E  E  E E
|---------------------------------|---------------------------------|
|---------------------------------|---------------------------------|
|---------------------------------|---------------------------------|
|-12-10-8---------12-10-8-12-10-8-|---------12-10-8-----------------|
|---------12-10-8-----------------|-12-10-8---------12-10-8---------|
|---------------------------------|-------------------------12-10-8-|
|---------------------------------|---------------------------------|


    Gtr II
    |-3-| |-3-| |-3-| |-3-|   |-3-| |-3-| |-3-| |-3-|
    E E E E E E E E E E E E   E E E E E E E E E E E E
||--------------------------|--------------------------||
||--------------------------|--------------------------||
||o-------------------------|-------------------------o||
||--------------------------|--------------------------||
||o-------------------------|-------------------------o||
||--3-3-3-3-3-3-3-3-3-3-3-3-|-6-6-6-8-8-8-6-6-6-5-5-5--||
||--------------------------|--------------------------||
|
|   Gtr III
|   |-3-| |-3-| |-3-| |-3-|   |-3-| |-3-| |-3-| |-3-|
|   E E E E E E E E E E E E   E E E E E E E E E E E E
||--------------------------|--------------------------||
||--------------------------|--------------------------||
||o-------------------------|-------------------------o||
||--------------------------|--------------------------||
||o-------------------------|-5-5-5-7-7-7-5-5-5-------o||
||--6-6-6-6-6-6-6-6-6-6-6-6-|-------------------8-8-8--||
||--------------------------|--------------------------||


  |-3-| |-3-| |-3-| |-3-|   |-3-| |-3-| |-3-| |-3-|
  E E E E E E E E E E E E   E E E E E E E E E E E E
|-------------------------|-------------------------|
|-------------------------|-------------------------|
|-------------------------|-------------------------|
|-------------------------|-------------------------|
|-3-3-3-3-3-3-3-3-3-3-3-3-|-6-6-6-8-8-8-6-6-6-5-5-5-|
|-------------------------|-------------------------|
|-------------------------|-------------------------|
|
| |-3-| |-3-| |-3-| |-3-|   |-3-| |-3-| |-3-| |-3-|
| E E E E E E E E E E E E   E E E E E E E E E E E E
|-------------------------|-------------------------|
|-------------------------|-------------------------|
|-------------------------|-------------------------|
|-------------------------|-5-5-5-7-7-7-5-5-5-------|
|-6-6-6-6-6-6-6-6-6-6-6-6-|-------------------8-8-8-|
|-------------------------|-------------------------|
|-------------------------|-------------------------|


                                     ~
  |-3-| |-3-| |-3-| |-3-|
  E E E E E E E E E E E E   Q  Q  Q  Q
|-------------------------|-------------|
|-------------------------|-------------|
|-------------------------|-------------|
|-------------------------|-------------|
|-------------------------|-------------|
|-3-3-3-3-3-3-3-3-3-3-3-3-|-6--8--6--5--|
|-------------------------|-------------|
|
|                                    ~
| |-3-| |-3-| |-3-| |-3-|
| E E E E E E E E E E E E   Q  Q  Q  Q
|-------------------------|-------------|
|-------------------------|-------------|
|-------------------------|-------------|
|-------------------------|-------------|
|-------------------------|-5--7--5--3--|
|-6-6-6-6-6-6-6-6-6-6-6-6-|-------------|
|-------------------------|-------------|


   Pre-Chorus
    Gtrs II, III
    |3| |-3-| |3| |-3-|   |3| |-3-| |3| |-3-|
    Q E E E E Q E E E E   Q E E E E Q E E E E
||----------------------|---------------------|
||----------------------|---------------------|
||o---------------------|---------------------|
||--4---------4---------|-4---------4---------|
||o-4-4-4-4-4-4-4-------|-4-4-4-4-4-4-4-------|
||--2-2-2-2-2-2-2-4-2-0-|-2-2-2-2-2-2-2-4-2-0-|
||----------------------|---------------------|


                       1.              2.
  |3| |-3-| |3| |-3-|
  Q E E E E Q E E E E   Q  Q  Q  Q      Q  Q  Q  Q
|---------------------|--------------||---------------|
|---------------------|--------------||---------------|
|---------------------|----6--------o||---------------|
|-4---------4---------|-4--6--7--6---||----8----------|
|-4-4-4-4-4-4-4-------|-4--4--7--6--o||-6--8--9--8----|
|-2-2-2-2-2-2-2-4-2-0-|-2-----5--4---||-6--6--9--8----|
|---------------------|--------------||-4-----7--6----|


   Chorus
    |3| |-3-| |3| |-3-|   |3| |-3-| |3| |-3-|
    Q E E E E Q E E E E   Q E E E E Q E E E E
||----------------------|---------------------|
||----------------------|---------------------|
||o---------------------|---------------------|
||----------------------|---------------------|
||o-6-6-6-6-6-6-6-6-6-6-|-4-4-4-4-4-4-4-4-4-4-|
||--6-6-6-6-6-6-6-6-6-6-|-4-4-4-4-4-4-4-4-4-4-|
||--4-4-4-4-4-4-4-4-4-4-|-2-2-2-2-2-2-2-2-2-2-|


  |3| |-3-| |3| |-3-|
  Q E E E E Q E E E E   Q  Q  Q  Q
|---------------------|--------------||
|---------------------|--------------||
|---------------------|-------------o||
|-9-9-9-9-9-9-9-9-9-9-|-8--6--4------||
|-9-9-9-9-9-9-9-9-9-9-|-8--6--4--8--o||
|-7-7-7-7-7-7-7-7-7-7-|-6--4--2--8---||
|---------------------|----------6---||


    Gtr I
      |3| |-3-|  |3|  |-3-|   |3| |-3-|  |3| |-3-|
      Q E E E E  Q E  E E E   Q E E E E  Q E E E E
||--------------------------|----------------------|
||--------------------------|----------------------|
||o-------------------------|----------------------|
||--------------------------|----------------------|
||o---6-6-6-6-6--6-6--6-6-6-|-4-4-4-4-4--4-4-4-4-4-|
||----6-6-6-6-6--6-6--6-6-6-|-4-4-4-4-4--4-4-4-4-4-|
||----4-4-4-4-4--4-4--4-4-4-|-2-2-2-2-2--2-2-2-2-2-|
|
|   Gtr II
|                             |3| |-3-|
|     H          Q    Q       Q E E E E  H
||--------------------------|----------------------|
||--------------------------|----------------------|
||o--/8---------10---11-----|-6-6-6h8p6-10---------|
||--------------------------|----------------------|
||o-------------------------|----------------------|
||--------------------------|----------------------|
||--------------------------|----------------------|
|
|   Gtr III
|                             |3| |-3-|
|     H          Q    Q       Q E E E E  H
||--------------------------|----------------------|
||---------------9---11-----|-6-6-6h7p6--9---------|
||o-/11---------------------|----------------------|
||--------------------------|----------------------|
||o-------------------------|----------------------|
||--------------------------|----------------------|
||--------------------------|----------------------|


  |3| |-3-| |3| |-3-|
  Q E E E E Q E E E E    Q  Q   Q   Q
|---------------------|-----------------||
|---------------------|-----------------||
|---------------------|----------------o||
|-9-9-9-9-9-9-9-9-9-9-|--8--6---4-------||
|-9-9-9-9-9-9-9-9-9-9-|--8--6---4---8--o||
|-7-7-7-7-7-7-7-7-7-7-|--6--4---2---8---||
|---------------------|-------------6---||
|
|                                   ~~
|               |-3-|
| Q   Q     Q   E E E    Q  Q   Q   Q
|---------------------|-----------------||
|---------------------|-----------------||
|-----6-----8-----6---|----------------o||
|-9-------------9---9-|--8--6-----------||
|---------------------|---------9---8--o||
|---------------------|-----------------||
|---------------------|-----------------||
|
|                                   ~~
|               |-3-|
| Q   Q     Q   E E E    Q  Q   Q   Q
|---------------------|-----------------||
|---------------------|-11--9-----------||
|-8---6-----8---8-6-8-|--------11--10--o||
|---------------------|-----------------||
|---------------------|----------------o||
|---------------------|-----------------||
|---------------------|-----------------||


   Bridge
   4/4
    Gtr II
    |-3-| |-3-| |-3-| |-3-|   |-3-| |-3-| |-3-| |-3-|
    E E E E E E E E E E E E   E E E E E E E E E E E E
||--------------------------|-------------------------|
||--------------------------|-------------------------|
||o-------------------------|-------------------------|
||--------------------------|---------------------3---|
||o-6-------6---8---9---8---|-4-------4---4---6-------|
||--------------------------|-------------------------|
||----4-4-4---4---4---4---4-|---2-2-2---2---2---2---2-|
|
|   Gtr III
|   |-3-| |-3-| |-3-| |-3-|   |-3-| |-3-| |-3-| |-3-|
|   E E E E E E E E E E E E   E E E E E E E E E E E E
||--------------------------|-------------------------|
||--------------------------|-------------------------|
||o-------------------------|-------------------------|
||--------------------------|---------------------3---|
||o-6-------6---8---9---8---|-4-------4---4---6-------|
||--------------------------|-------------------------|
||----4-4-4---4---4---4---4-|---2-2-2---2---2---2---2-|


                              TP TP TP TP
  |-3-| |-3-|  |-3-| |-3--|
  E E E E E E  E E E E  E E   Q  Q  Q  Q   4x
|---------------------------|--------------||
|---------------------------|--------------||
|---------------------------|-------------o||
|---------------------------|--------------||
|-2-------2----4---2--------|-------------o||
|-----------------------4---|-6--4--2------||
|---0-0-0---0----0---0----0-|----------6---||
|
|                             TP TP TP TP
| |-3-| |-3-|  |-3-| |-3--|
| E E E E E E  E E E E  E E   Q  Q  Q  Q   4x
|---------------------------|--------------||
|---------------------------|--------------||
|---------------------------|-------------o||
|-9-------9---11---9--------|-8--6--4------||
|----------------------11---|----------8--o||
|---7-7-7---7----7---7----7-|--------------||
|---------------------------|--------------||


   Epic Goblin Symphony
    ~             ~~~~~~~              ~              ~
         |-3-|        |-3--|                 |-3-|         |-3-|
    H    Q Q Q    Q  +E  E E  Q   Q    H     Q Q Q    H    Q Q Q
||--------------|--------------------|--------------|--------------||
||--------------|--------------------|--------------|--------------||
||o-------------|--------------------|--------------|-------------o||
||--------------|--------------------|-------8-6----|-6----6-------||
||o-6------6-8--|-9--(9)-8-6--8---9--|-6---------9--|--------9-8--o||
||-------9------|--------------------|--------------|--------------||
||--------------|--------------------|--------------|--------------||
|
|   ~             ~~~~~~~              ~              ~
|        |-3-|        |-3--|                 |-3-|         |-3-|
|   H    Q Q Q    Q  +E  E E  Q   Q    H     Q Q Q    H    Q Q Q
||--------------|--------------------|--------------|--------------||
||--------------|--------------------|--------------|--------------||
||o-------------|--------------------|--------------|-------------o||
||-----------6--|-8--(8)-6----6---8--|------11-9-8--|-9----9-8-6---||
||o-9----8-9----|----------9---------|-9------------|-------------o||
||--------------|--------------------|--------------|--------------||
||--------------|--------------------|--------------|--------------||
|
|   Gtrs IV, V
|   W             H           Q   Q    W              W
||--------------|--------------------|--------------|--------------||
||--------------|--------------------|--------------|--------------||
||o-3-----------|-6----------(6)--6--|-3------------|-------------o||
||--4-----------|-8----------(8)--8--|-4------------|-1------------||
||o-6-----------|-9-----------8---9--|-6------------|-2-----------o||
||--------------|--------------------|--------------|-4------------||
||--4-----------|-7-----------6---7--|-4------------|-2------------||


   Pre-Chorus
    Gtrs II, III
    |3| |-3-| |3| |-3-|   |3| |-3-| |3| |-3-|   |3| |-3-| |3| |-3-|
    Q E E E E Q E E E E   Q E E E E Q E E E E   Q E E E E Q E E E E
||----------------------|---------------------|---------------------|
||----------------------|---------------------|---------------------|
||o---------------------|---------------------|---------------------|
||--4---------4---------|-4---------4---------|-4---------4---------|
||o-4-4-4-4-4-4-4-------|-4-4-4-4-4-4-4-------|-4-4-4-4-4-4-4-------|
||--2-2-2-2-2-2-2-4-2-0-|-2-2-2-2-2-2-2-4-2-0-|-2-2-2-2-2-2-2-4-2-0-|
||----------------------|---------------------|---------------------|


 1.              2.
  Q  Q  Q  Q       Q      Q      Q      Q
|--------------||-------------------------------|
|--------------||-------------------------------|
|----6--------o||-------------------------------|
|-4--6--7--6---||---------------<3>b5-----------|
|-4--4--7--6--o||--------<3>b5---------<3>b5----|
|-2-----5--4---||-<3>b5-------------------------|
|--------------||-------------------------------|


   Chorus
    |3| |-3-| |3| |-3-|   |3| |-3-| |3| |-3-|
    Q E E E E Q E E E E   Q E E E E Q E E E E
||----------------------|---------------------|
||----------------------|---------------------|
||o---------------------|---------------------|
||----------------------|---------------------|
||o-6-6-6-6-6-6-6-6-6-6-|-4-4-4-4-4-4-4-4-4-4-|
||--6-6-6-6-6-6-6-6-6-6-|-4-4-4-4-4-4-4-4-4-4-|
||--4-4-4-4-4-4-4-4-4-4-|-2-2-2-2-2-2-2-2-2-2-|


  |3| |-3-| |3| |-3-|
  Q E E E E Q E E E E   Q  Q  Q  Q
|---------------------|--------------||
|---------------------|--------------||
|---------------------|-------------o||
|-9-9-9-9-9-9-9-9-9-9-|-8--6--4------||
|-9-9-9-9-9-9-9-9-9-9-|-8--6--4--8--o||
|-7-7-7-7-7-7-7-7-7-7-|-6--4--2--8---||
|---------------------|----------6---||


    Gtr I
      |3| |-3-|  |3|  |-3-|   |3| |-3-|  |-3-| |-3-|
      Q E E E E  Q E  E E E   Q E E E E  Q   E E E E
||--------------------------|------------------------|
||--------------------------|------------------------|
||o-------------------------|------------------------|
||--------------------------|------------------------|
||o---6-6-6-6-6--6-6--6-6-6-|-4-4-4-4-4--4---4-4-4-4-|
||----6-6-6-6-6--6-6--6-6-6-|-4-4-4-4-4--4---4-4-4-4-|
||----4-4-4-4-4--4-4--4-4-4-|-2-2-2-2-2--2---2-2-2-2-|
|
|   Gtr II
|                             |3| |-3-|  |-3-| |-3-|
|     H          Q    Q       Q E E E E  E E E E E E
||--------------------------|------------------------|
||--------------------------|------------------------|
||o--/8---------10---11-----|-6-6-6h8p6-10-8-6-------|
||--------------------------|------------------9-8-6-|
||o-------------------------|------------------------|
||--------------------------|------------------------|
||--------------------------|------------------------|
|
|   Gtr III
|                             |3| |-3-|  |-3-| |-3-|
|     H          Q    Q       Q E E E E  E E E E E E
||--------------------------|------------------------|
||---------------9---11-----|-6-6-6h7p6--9-7-6-------|
||o-/11---------------------|------------------8-6---|
||--------------------------|----------------------9-|
||o-------------------------|------------------------|
||--------------------------|------------------------|
||--------------------------|------------------------|


  |3| |-3-| |3| |-3-|
  Q E E E E Q E E E E    Q  Q   Q   Q
|---------------------|-------------------||
|---------------------|-------------------||
|---------------------|------------------o||
|-9-9-9-9-9-9-9-9-9-9-|--8--6---4---------||
|-9-9-9-9-9-9-9-9-9-9-|--8--6---4---8----o||
|-7-7-7-7-7-7-7-7-7-7-|--6--4---2---8-----||
|---------------------|-------------6-----||
|
|                                   ~~
|               |-3-|
| Q   Q     Q   E E E    Q  Q   Q   Q
|---------------------|-------------------||
|---------------------|-------------------||
|-----6-----8-----6---|------------------o||
|-9-------------9---9-|--8--6-------------||
|---------------------|---------9---8----o||
|---------------------|-------------------||
|---------------------|-------------------||
|
|                                   ~~
|               |-3-|
| Q   Q     Q   E E E    Q  Q   Q   Q
|---------------------|-------------------||
|---------------------|-11--9-------------||
|-8---6-----8---8-6-8-|--------11--10----o||
|---------------------|-------------------||
|---------------------|------------------o||
|---------------------|-------------------||
|---------------------|-------------------||


 2/4
   q  Q
|----------*|
|----------*|
|----------*|
|----------*|
|--6-------*|
|--6-------*|
|--4-------*|
|
|  q  Q
|----------*|
|----------*|
|--8-------*|
|----------*|
|----------*|
|----------*|
|----------*|
|
|  q  Q
|----------*|
|----------*|
|-11-------*|
|----------*|
|----------*|
|----------*|
|----------*|



Duration Legend
---------------
W - whole; H - half; Q - quarter; E - 8th; S - 16th; T - 32nd; X - 64th; a - acciaccatura
+ - note tied to previous; . - note dotted; .. - note double dotted
Uncapitalized letters represent notes that are staccato (1/2 duration)
Irregular groupings are notated above the duration line
Duration letters will always appear directly above the note/fret number it represents the
duration for.  Duration letters with no fret number below them represent rests.  Multi-
bar rests are notated in the form Wxn, where n is the number of bars to rest for.  Low
melody durations appear below the staff

Tablature Legend
----------------
 h   - hammer-on
 p   - pull-off
 b   - bend
 pb  - pre-bend
 r   - bend release (if no number after the r, then release immediately)
 /\  - slide into or out of (from/to "nowhere")
 s   - legato slide
 S   - shift slide
 - natural harmonic
[n]  - artificial harmonic
n(n) - tapped harmonic
 ~   - vibrato
 tr  - trill
 T   - tap
 TP  - trem. picking
 PM  - palm muting
\n/  - tremolo bar dip; n = amount to dip
 \n  - tremolo bar down
 n/  - tremolo bar up
/n\  - tremolo bar inverted dip
 =   - hold bend; also acts as connecting device for hammers/pulls
 <> - volume swell (louder/softer)
 x   - on rhythm slash represents muted slash
 o   - on rhythm slash represents single note slash

Misc Legend
-----------
 |  - bar
||  - double bar
||o - repeat start
o|| - repeat end
*|  - double bar (ending)
 :  - bar (freetime)
 $  - Segno
 &  - Coda
Tempo markers -  = BPM(8/16=s8/s16), where s8 = swing 8ths, s16 = swing 16ths





Comments


Popular Nekrogoblikon tabs & chords
Goblins Are Better Than Trolls Bass Tabs
A Feast Intro Tabs
Goblin Island Tabs
Goblins Ahoy Tabs
In The Hall Of The Goblin King Tabs


Song lyrics



↑ Back to top | Tablatures and chords are parodies/interpretations of the original songs. You may use it for private study, scholarship, research or language learning purposes only
© 2014 AZChords.com Contact us | Privacy policy | DMCA | Add/correct tabs | Request tabs | Top 50 tabs