>
 >
 >
Laura Non C'e

Laura Non C'e Bass Tabs

Nek - Laura Non C'e chords, tabs, tablatures, lyrics

Guitar lessons | Add/correct | Request | Top 50 tabs Artists:  A B C D E F G H I J K L M N O P Q R S T U V W X Y Z 0-9

Laura Non C'e Bass Tabs – Nek

CD, Sheet music, Poster

Do you like Laura Non C'e? Share with your friends now
Bass TabsChordsTabs
--------------------
Laura Non C'e by NEK
--------------------

Alright, so this is an excellent example of a simple but cool
keep-the-groove bass line with just enough bits & pieces to make it
interesting. Unfortunately I couldn't find either the name of the
bassist or the composer, the latter somehow manages to switch from
a minor to c# minor after/in the bridge, beats me how he does it :-)
Anyway, enjoy it, any questions/corrections/comments to




-- represents a quaver note
/  slide up
\  slide down
x  dead notes
h  hammer on
n* five string basses play 8vb



4/4 time

  00:38
G|----------------|----------------|----------------|----------------|-
D|----------------|----------------|----------------|----------------|-
A|0-----0-0-------|----------------|----------------|----------------|-
E|----------------|1-----1-1-------|3-----3-3-------|0-----0-0-------|-


G|----------------|----------------|----------------|----------------|-
D|----------------|----------------|----------------|----------------|-
A|0-----0-0-------|----------------|----------------|----------------|-
E|----------------|1-----1-1-------|3-----3-3-------|0-----0-0-------|-

  00:53
G|----------------|----------------|----------------|----------------|-
D|----------------|----------------|----------------|----------------|-
A|----------------|----------------|0-----0-0-------|----------------|-
E|1-----1-1-------|3-----3-3-------|----------------|0-----0-0-------|-


G|----------------|----------------|-
D|----------------|----------------|-
A|----------------|----------------|-
E|1-----1-1-------|3---3-----------|-



  01:05 chorus
G|----------------|----------------|----------------|----------------|-
D|----------------|----------------|----------------|----------------|-
A|0-0-0-0-0-2-2-3-|--3-3-3-3-3-3-3-|0-0-0-0-0-0-----|----------------|-
E|----------------|----------------|------------0---|1-1-1-1-3-0-3-0-|-


G|----------------|----------------|----------------|----------------|-
D|----------------|----------------|----------------|----------------|-
A|0-0-0-0-0-2-2-3-|--3-3-3-3-3-3-3-|0-0-0-0-0-0-----|----------------|-
E|----------------|----------------|------------0---|1-1-1-1-3-3-1-3-|-


G|----------------|----------------|----------------|----------------|-
D|----------------|----------------|----------------|----------------|-
A|0-0-0-0-0-2-2-3-|--3-3-3-3-3-3-3-|0-0-0-0-0-------|----------------|-
E|----------------|----------------|----------0-0-1-|----------------|-



  01:28
G|----------------|----------------|----------------|----------------|-
D|----------------|----------------|----------------|----------------|-
A|0-----0-0-------|----------------|----------------|--------0-3-2---|-
E|----------------|1-----1-1--/5---|3-----3-3-----0-|--0-0-3-------3-|-


G|----------------|----------------|----------------|----------------|-
D|----------------|----------------|----------------|----------------|-
A|0---------------|----------------|----------------|----------------|-
E|------0-5-7-8\--|1-----1-1-------|3-----3-3-------|0-----0-0-5-0-0-|-

  01:43
G|----------------|----------------|----------------|----------------|-
D|----------------|----------------|----------------|----------------|-
A|----------------|----------------|0---------------|----------------|-
E|1-----1-1-----1-|3-----3-3---0-3-|------0-5-7-8\--|0-----0-0-----0-|-


G|----------------|----------------|-
D|----------------|----------------|-
A|----------------|----------------|-
E|1-----1-1-----1-|3---3-----------|-



  01:54 chorus
G|----------------|----------------|----------------|----------------|-
D|----------------|----------------|----------------|----------------|-
A|0-0-0-0-0-2-2-3-|3-3-3-3-3-3-3-3-|0-0-0-0-0-------|--------0-3-2---|-
E|----------------|----------------|----------0-0-1-|--0-0-3-------3-|-


G|----------------|----------------|----------------|----------------|-
D|----------------|----------------|----------------|----------------|-
A|0-0-0-0-0-2-2-3-|3-3-3-3-3-3-3-3-|0-0-0-0-0-0-----|----------------|-
E|----------------|----------------|------------0-0-|1-1-1-1-3-3-3-3-|-


G|----------------|----------------|-
D|----------------|----------------|-
A|0-0-0-0-0-0----/|12--------------|-
E|----------------|----------------|-



  02:13 bridge
G|----------------|----------------|----------------|----------------|-
D|----------------|----------------|----------------|---/3---2-------|-
A|5*--------5*--5-|--------------5-|3---------------|------------3-0-|-
E|------------5---|3-----------3---|----------0---1-|----------------|-


G|----------------|----------------|----------------|----------------|-
D|----------------|----------------|----------------|----------------|-
A|5*--------5*--5-|----------------|0-----2-----3---|----------------|-
E|------------5---|3-3-3-------0-3-|----------------|0-----/7\-------|-

  02:28
G|----------------|----------------|--------------2-|0---------------|-
D|----------------|----------------|------------2---|----------------|-
A|5*--------5*--5-|------------2h3-|0---------0-----|----------------|-
E|------------5---|4-----0---0-----|----------------|------xx3---3-0-|-


G|----------------|----------------|----------------|----------------|-
D|----------------|--------------3-|2-3-------------|----------------|-
A|----------------|------------0---|----------------|----------------|-
E|1-----------x-0-|1---------1-----|----x-0-0-0-0-0-|0-0-0-0-0-0-0-0-|-



  02:43 solo
G|----------------|----------------|----------------|----------------|-
D|----------------|----------------|----------------|----------------|-
A|4-4-4-4-4-4-4-4-|0-0-0-0-0-0-0-0-|2-2-2-2-2-2-2---|-------x2-----2-|-
E|----------------|----------------|---------------x|2--x4------x4---|-


G|----------------|----------------|----------------|----------------|-
D|----------------|----------------|----------------|----------------|-
A|4-4-4-4-4-4-4-4-|0-0-0-0-0-0-0-0-|2-2-2-2-2-2-2---|----------------|-
E|----------------|----------------|--------------2-|4-4-4-4-4-4-4---|-

  02:58
G|----------------|----------------|----------------|----------------|-
D|----------------|----------------|----------------|----------------|-
A|0-0-0-0-0-0-0-0-|2-2-2-2-2-2---2-|4-4-4-4-4-4-4---|----------------|-
E|----------------|------------4---|--------------2-|4-4-4-4-4-xx2-4-|-


G|----------------|----------------|-
D|----------------|----------------|-
A|0-0-0-0-0-0-0---|2---2---4\--4\--|-
E|--------------2-|----------------|-



  03:10 chorus
G|----------------|----------------|----------------|----------------|-
D|----------------|----------------|----------------|----------------|-
A|4-4-4-4-4-6*6*--|----------------|--------------0-|0-0-0-2-4---4---|-
E|--------------0-|0-0-0-0-0-0-0-0-|2-2-2-2-2-4-4---|----------4---4-|-


G|----------------|----------------|----------------|----------------|-
D|----------------|----------------|----------------|----------------|-
A|4-4-4-4-4-6*6*--|----------------|--------------0-|0-0-0-2-2-2-2-2-|-
E|--------------0-|0-0-0-0-0-0-0-0-|2-2-2-2-2-2-2---|----------------|-


G|----------------|----------------|----------------|----------------|-
D|----------------|----------------|----------------|----------------|-
A|4-4-4-4-4-6*6*--|----------------|--------------0-|----0-2-4---4-2-|-
E|--------------0-|0-0-0-0-0-0-0-0-|2-2-2-2-2-4-----|--xx------4-----|-


G|----------------|----------------|----------------|----------------|-
D|----------------|----------------|----------------|----------------|-
A|4-4-4-4-4-6*6*--|----------------|----------------|0-0-0-2-2-2-2-2-|-
E|--------------0-|0-0-0-0-0-0-0-0-|2-2-2-2-2-2-2-4-|----------------|-


G|----------------|-
D|----------------|-
A|4*--4*----------|-
E|----------------|-





Comments


Popular Nek tabs & chords
Ci Sei T Chords
Dimmi Cose Chords
Lascia Che Io Sia 1 Chords
Laura No Esta Chords
Laura Non C'e Chords
Notte Di Febbraio Chords
Sei Grande Chords
...Non Sei Mai Lontano Tabs
Sei Solo Tu 1 Tabs
Tira Su Il Volume Ukulele


Song lyrics



↑ Back to top | Tablatures and chords are parodies/interpretations of the original songs. You may use it for private study, scholarship, research or language learning purposes only
© 2014 AZChords.com Contact us | Privacy policy | DMCA | Add/correct tabs | Request tabs | Top 50 tabs