» » »

Neil Zaza, Untitled Tabs (ver.1)

Artists:  A B C D E F G H I J K L M N O P Q R S T U V W X Y Z # 

Untitled Tabs (ver.1)

Neil Zaza Tabs
 Rating:
4/5 (4 votes)
Untitled lessons Tabs too difficult? Try these video lessons and learn fast
1
                -------------------------------------------------------------------------------
-------------------------------------------------------------------------------


Tuning:EADGBE

I was blown away. What a perfect song and a perfect sound and performance. Everybody
was yelling for tabs and they where nowhere to be found on the internet. Now, 2 years 
later, I bought a guitar, learnt to play the song by ear and wrote my first tabs. Hope 
this is
what lots of you were looking for. Maybe some mistakes buts its the bottum line.

Cheers,

Dave



Intro

e|---------------------------------------------------------------------------|
B|--7b~~---------------------------------------------------------------------|
G|-------7pbr----------------------------------------------------------------|
D|---------------------------------------------------------------------------|
A|---------------------------------------------------------------------------|
E|---------------------------------------------------------------------------|


Play 2 x
e|-----------------------------------------------------------------------------|
B|8-7--------------------------------------------------------------------------|
G|----7------------------------------------------------------------------------|
D|------9-7-9-7\4-5-7-4-4-5----------------------------------------------------|
A|--------------------------5--------------------------------------------------|
E|-----------------------------------------------------------------------------|

Play 2 X
e|--------10-----------------------------------------------------------------|
B|----7-8----7-8---7-7-8-----------------------------------------------------|
G|7-9------------7-------7---------------------------------------------------|
D|---------------------------------------------------------------------------|
A|---------------------------------------------------------------------------|
E|---------------------------------------------------------------------------|


e|---------------------------------------------------------------------------|
B|---------------------------------------------------------------------------|
G|------7-----7----7--------------10------10-------10------------------------|
D|----4---4/5---5-7h-7-5----5-7-8----8-10----10-12----12-10-8----------------|
A|5-7------------------------------------------------------------------------|
E|---------------------------------------------------------------------------|


e|-----------------------------------------------------------------------------|
B|----------------7-0----------------------------------------------------------|
G|7-7-7---------7--------------------------------------------------------------|
D|----------5-7----------------------------------------------------------------|
A|------5-7--------------------------------------------------------------------|
E|-----------------------------------------------------------------------------|

e|---------------------------------------------------------------------------|
B|15b-12---------------------------------------------------------------------|
G|-------14-12-14-12-14-12----12----------12---------------------------------|
D|-------------------------14----14-12-14------------------------------------|
A|---------------------------------------------------------------------------|
E|---------------------------------------------------------------------------|

e|---------------------------------------------------------------------------|
B|7------------------------8-10-10b-8-10-8-----------------------------------|
G|--7---------7---7/9-7-7-9---------------9-7-9------------------------------|
D|----5-4-5-7---7------------------------------------------------------------|
A|---------------------------------------------------------------------------|
E|---------------------------------------------------------------------------|


e|---12-14----12-15-14-15-17-19-20-20b-20b-20-19-19-17-19-19b-1917-15-17-17b---|
B|12-------12------------------------------------------------------------------|
G|-----------------------------------------------------------------------------|
D|-----------------------------------------------------------------------------|
A|-----------------------------------------------------------------------------|
E|-----------------------------------------------------------------------------|

e|17b-17-15----14--------------------------------------------------------------|
B|----------15----15-----------------------------------------------------------|
G|-------------------14-12-----------------------------------------------------|
D|-----------------------------------------------------------------------------|
A|-----------------------------------------------------------------------------|
E|-----------------------------------------------------------------------------|

e|-----------------------------------------------------------------------------|
B|-----------------------------------------------------------------------------|
G|------7-----7----7--------------10------10-------10--------------------------|
D|----4---4-5---5-7--7-5----5-7-8----8-10----10-12----12-10-8------------------|
A|5-7--------------------------------------------------------------------------|
E|-----------------------------------------------------------------------------|

e|-----------------------------------------------------------------------------|
B|11-10------------------------------------------------------------------------|
G|------10---------------------------------------------------------------------|
D|----------12-10-12-10-7-8-10-7-7-7-8-----------------------------------------|
A|-------------------------------------8---------------------------------------|
E|-----------------------------------------------------------------------------|

e|---------------------17-18---------------------------------------------------|
B|-----------15-18-18b------18-13-15-15b-15r-13--------------------------------|
G|-----15-17-----------------------------------15-12---------------------------|
D|15-17----------------------------------------------15-13-12-10-12b-12~10-12--|
A|-----------------------------------------------------------------------------|
E|-----------------------------------------------------------------------------|

e|-----------------------------------------------------------------------------|
B|10-12-12b-12r-10-12----------------------------------------------------------|
G|-----------------------------------------------------------------------------|
D|-----------------------------------------------------------------------------|
A|-----------------------------------------------------------------------------|
E|-----------------------------------------------------------------------------|

e|-----------------------------------------------------------------------------|
B|--------11------13-----------------------------------------------------------|
G|10---------10-8----12-10-----------------------------------------------------|
D|---10-8----------------------------------------------------------------------|
A|-----------------------------------------------------------------------------|
E|-----------------------------------------------------------------------------|

e|-----------------------------------------------------------------------------|
B|-----------------------------------------------------------------------------|
G|5-7/8\7---7/8\7---7/8\7------------------------------------------------------|
D|--------8----- 8--------8-10-------------------------------------------------|
A|-----------------------------------------------------------------------------|
E|-----------------------------------------------------------------------------|

e|-----------------------------------------------------------------------------|
B|------------------16-15----16-15---------------------------------------------|
G|------------15-17-------15-------15\17---------------------------------------|
D|------15-17------------------------------------------------------------------|
A|15-17------------------------------------------------------------------------|
E|-----------------------------------------------------------------------------|

e|-----------------------------------------------------------------------------|
B|11-10------------------------------------------------------------------------|
G|------10-----------------10--------------------------------------------------|
D|---------12-10-12-10\7-8-----------------------------------------------------|
A|-----------------------------------------------------------------------------|
E|-----------------------------------------------------------------------------|

e|-----------------------------------------------------------------------------|
B|-----------------------------------------------------------------------------|
G|10-10-10\8-8\7-7\5-5\3-3/7---------------------------------------------------|
D|-----------------------------------------------------------------------------|
A|-----------------------------------------------------------------------------|
E|-----------------------------------------------------------------------------|

************************************

| /   slide up
| \   slide down
| h   hammer-on
| p   pull-off
| ~   vibrato
| +   harmonic
| x   Mute note
| b   Bend
| pb  Pre-bend
| br  Bend release
| pbr Pre-bend release
| brb Bend release bend

************************************
            
Submit corrections

comments powered by Disqus
↑ Back to top | Neil Zaza Tabs for Untitled. Lyrics for acoustic guitar and electric guitar. 1 Tablatures and chords are parodies/interpretations of the original songs. You may use it for private study, scholarship, research or language learning purposes only