» » »

Something Anything Tabs (ver.1)

Artists:  A B C D E F G H I J K L M N O P Q R S T U V W X Y Z # 

Something Anything Tabs (ver.1)

Neil Zaza
Rating:
5/5 (1 vote)

Hard to play? Try these video lessons and learn fast.
                (Intro)
I just figured this out i hope it helps.

 Lead Neil zaza
e|---------------------------------17~--------17~-----------|
b|------------------14-15----14-15-----14h15----------------|
g|---16~~~~~~-------------16--------------------------------|
d|---------------16-----------------------------------------|
a|-------------14-------------------------------------------|
e|-19~~-----------------------------------------------------|

 This is after the heavey rhythem part..
e|--------------------------|
b|--------------------------|
g|-4-6br(7)-4---------------| i acually talked to zaza and he told me its 
d|------------7-4-2-0/2/4---|  in bm. so you can mess around in bm.
a|--------------------------|
e|--------------------------|

key.
~ virbito
b bend
br bend to fret in ( ) then release
h hammer on


this is one of my favorite zaza songs, i will maybe post some more up. have fun learning this.
            
Hard to play? Try these video lessons and learn fast. | Correct




comments powered by Disqus
↑ Back to top | Tablatures and chords are parodies/interpretations of the original songs. You may use it for private study, scholarship, research or language learning purposes only