» » »

My Dearest Tabs (ver.1)

Artists:  A B C D E F G H I J K L M N O P Q R S T U V W X Y Z # 

My Dearest Tabs (ver.1)

Neil Zaza
Rating:
5/5 (2 votes)

Hard to play? Try these video lessons and learn fast.
                Neil Zaza - My Dearest

^ = hammer on / pull off
/ = slide
~ = vibrato
b = bend
--5b5-- = bend&release

If there are any mistakes in it let me know
icq: 323-277-221


e|-------------------------------------------------8/12/8--------------|
h|---6/8/6---------------------------------6/8/6-----------------------|
G|----------5/7/5----------5-------------------------------------------|
D|-----------------3^5-5/7-----5^7^5/3/5-------------------------------|
A|---------------------------------------------------------------------|
E|---------------------------------------------------------------------|

e|-----15---17—17b-18-17--13-13^15------12-----------------8-----------|
h|----15x----------------------------------13—10/8-—6^8/10----10^8/6/8-|
G|---15x---------------------------------------------------------------|
D|---------------------------------------------------------------------|
A|---------------------------------------------------------------------|
E|---------------------------------------------------------------------|

e|---12----13b13-----15---17—17b17-15-13-—17^15^13^15------------------|
h|------13----------15x------------------------------------------------|
G|-----------------15x-------------------------------------------------|
D|---------------------------------------------------------------------|
A|---------------------------------------------------------------------|
E|---------------------------------------------------------------------|

e|-----------------------------8-------10---12-12b-12-10---------------|
h|--------------------8b8b~8^6--------10x------------------------------|
G|-----------------------------------10x------------------12b-12-10----|
D|---3/5/7/10/7(/5)----------------------------------------------------|
A|---------------------------------------------------------------------|
E|---------------------------------------------------------------------|
        bend this one slowly ↓
e|---------------------------------------------------------------------|
h|---------------------------------------------------------------------|
G|---9b9~-----------------10-10~------------10-------------------------|
D|---------10/12----10^12---------12^10^12--10-------------------------|
A|----------------------------------------------10^8-10b10-8^10--------|
E|---------------------------------------------------------------------|
   bend this one slowly ↓
e|------10-------------13-----15b15-13-13^15---------------------------|
h|----10--10-13-10-13b-------------------------------------------------|
G|--12b----------------------------------------------------------------|
D|---------------------------------------------------------------------|
A|---------------------------------------------------------------------|
E|---------------------------------------------------------------------|

e|------8-6-6-5-5------------------------------------------------------|
h|--6^8------------8-8—-6^8—8b8b8—6^8----------------------------------|
G|---------------------------------------------------------------------|
D|---------------------------------------------------------------------|
A|---------------------------------------------------------------------|
E|---------------------------------------------------------------------|

e|------6^8-6-6-5-5--------------8-------------------------------------|
h|--6^8-------------8-8—6^8—8/10---10^8/6------------------------------|
G|----------------------------------------5----------------------------|
D|---------------------------------------------------------------------|
A|---------------------------------------------------------------------|
E|---------------------------------------------------------------------|

e|---15b--13—13^15---17b17--15--13----------------13--13---------------|
h|----------------------------------13----13^15----------15------------|
G|---------------------------------------------------------------------|
D|---------------------------------------------------------------------|
A|---------------------------------------------------------------------|
E|---------------------------------------------------------------------|
I'm not entirely sure of this part...     |
e|---------------------------------------------------------------------|
h|--13-----------------------------------------------------------------|
G|-----12b12^10-----10-10----------------------------------------------|
D|--------------12---------12--10--------------------------------------|
A|--------------------------------12^10/8------8^10-10b10~-8-8^10------|
E|---------------------------------------------------------------------|

e|---12-----------------8-------------------12-------------------------|
h|-----13-—10/8—-6^8/10---10^8/6-6^8------------13—10/8----------------|
G|---------------------------------------------------------------------|
D|---------------------------------------------------------------------|
A|---------------------------------------------------------------------|
E|---------------------------------------------------------------------|

e|---------------------------------------------------------------------|
h|----10---13-13b13--11------------------------------------------------|
G|---10x----------------12b12--10----------------10-10-----------------|
D|--10x---------------------------12—10----10^12-------12--10----------|
A|------------------------------------------------------------10b10~---|
E|---------------------------------------------------------------------|

e|---------------15b---17b-17--13-13^15--------------------------------|
h|---------------------------------------------------------------------|
G|---------------------------------------------------------------------|
D|---------------------------------------------------------------------|
A|--8-8/10-------------------------------------------------------------|
E|---------------------------------------------------------------------|

                                                     1    2    fade out
e||:--18b-18-18--17-17--15-15—13^15-17-17b17—15^13|^15-:|----:|--------|
h||:----------------------------------------------|----:|-13-:|--------|
G||:----------------------------------------------|----:|----:|--------|
D||:----------------------------------------------|----:|----:|--------|
A||:----------------------------------------------|----:|----:|--------|
E||:----------------------------------------------|----:|----:|--------|

There you go ;)
            
Hard to play? Try these video lessons and learn fast. | Correct




comments powered by Disqus
↑ Back to top | Tablatures and chords are parodies/interpretations of the original songs. You may use it for private study, scholarship, research or language learning purposes only