array
(
    
'melodiaintro' => 'melodiaintro'
    'neilzaza' 
=> 'neilzaza'
)
Melodia Tabs (ver. 1) by Neil Zaza @ AZ CHORDS.COM
» » »

Melodia Tabs (ver.1)

Artists:  A B C D E F G H I J K L M N O P Q R S T U V W X Y Z # 

Melodia Tabs (ver.1)

Neil Zaza
Rating:
5/5 (1 vote)

Hard to play? Try these video lessons and learn fast.
                (Intro)
                       Melodia By:Neil Zaza

Standard Tuning
Comment: This is an awesome cool sounding song. Enjoy!


     E   E    E     E  E    E      E   E
E||-------------------------11h12--11-----|
B||------10--10h12-----12--------------12-|
G||---9-------------9---------------------|
D||---------------------------------------|
A||---------------------------------------|
E||---------------------------------------|

  E     E    E   E     E    E      E   E   E  E   E     E
|----------------------------------------|-----------------|
|-----------12---------12----------10--9-|-----------------|  Play
|-11---8h9-------------------------------|-9------------11-|  Entire Part
|---------------11h14------10h14---------|----9---7h9------|  4x
|----------------------------------------|-----------------|
|----------------------------------------|-----------------|

Then come to this part

  E   E    E     E     E   E    E   E    E   E   Q
|---------11---11h12---11------------|-------------|
|-----9--------------------12--------|--12--14--12-|   Repeat
|--8---------------------------------|-------------| This Part
|------------------------------11--14|-------------|
|------------------------------------|-------------|
|------------------------------------|-------------|

Then Come Back To This Part One Last Time


     E   E    E     E  E    E      E   E
E||-------------------------11h12--11-----|
B||------10--10h12-----12--------------12-|
G||---9-------------9---------------------|
D||---------------------------------------|
A||---------------------------------------|
E||---------------------------------------|

  E     E    E   E     E    E      E   E   E  E   E     E
|----------------------------------------|-----------------|
|-----------12---------12----------10--9-|-----------------|  
|-11---8h9-------------------------------|-9------------11-|  
|---------------11h14------10h14---------|----9---7h9------|  
|----------------------------------------|-----------------|
|----------------------------------------|-----------------|

Have Fun!

Duration Legend
---------------
W - whole
H - half
Q - quarter
E - 8th
S - 16th
T - 32nd
X - 64th
. - note dotted
|-n-|  - n-tuplets


Tablature Legend
----------------
L - tied note
x - dead note
g - grace note
(n) - ghost note
> - accentuded note
NH - natural harmonic
AH - artificial harmonic
TH - tapped harmonic
SH - semi harmonic
PH - pitch harmonic
h - hammer on
p - pull off
b - bend
br - bendRelease
pb - preBend
pbr - preBendRelease
brb - bendReleaseBend
n/ - tremolo bar dip
n - tremolo bar dive
-/n - tremolo bar Release up
/n - tremolo bar inverted dip
/n - tremolo bar return
-n - tremolo bar Release down
S - shift slide
s - legato slide
/ -  slide into from below or out of upwards
 -  slide into from above or out of downwards
~ - vibrato
W - wide vibrato
tr - trill
TP - tremolo picking
T - tapping
S - slap
P - pop
< - fade in
^ - brush up
v - brush down
            
Hard to play? Try these video lessons and learn fast. | Correct




comments powered by Disqus
↑ Back to top | Tablatures and chords are parodies/interpretations of the original songs. You may use it for private study, scholarship, research or language learning purposes only