» » »

Neil Zaza, Everything About You Tabs (ver.1)

Artists:  A B C D E F G H I J K L M N O P Q R S T U V W X Y Z # 

Everything About You Tabs (ver.1)

Neil Zaza Tabs
 Rating:
4.2/5 (5 votes)
Everything About You lessons Tabs too difficult? Try these video lessons and learn fast
                Neil Zaza  Lead Guitar rate and coment :)

^ volume swell
p pull off
h hammer on
b( ) bend fret to sound like note in ( )
br bend then release
\ slide down
/ slide up
~ vibrato

the song starts out with keyboard. volume swells


   ^   ^
e|--------|   Repeat  3 times
b|--------|
g|--------|
d|-7------|
a|----5---|
e|--------|


guitar 0:18

e|-------------------------------------------------------------|
b|-------------------------------------------------------------|
g|-7-9h10---9\7-9-7-5-7-------7-9h10-9-7-9br(10)-7-9-7\5-7-----|
d|----------------------7--------------------------------------|
a|-------------------------------------------------------------|
e|-------------------------------------------------------------|

0:43

e|-----------------------------------------------------------------|
b|------------10h11-8~-----------10-11-10-11p10p8\6-10-8\6/8-------|
g|-7h9h10~--------------7h9h10-------------------------------------|
d|----------------------7------------------------------------------|
a|-----------------------------------------------------------------|
e|-----------------------------------------------------------------|

0:56

e|------------------------------------------------------------------|
b|------------22br(23)-20-20----------------------------------------|
g|-19-21-22~------------------7-9h10-9-7-9br(10)-7-9-7\5-7----------|
d|---------------------------------------------------------7-7~~~---|
a|------------------------------------------------------------------|
e|------------------------------------------------------------------|

1:14 sweep!

e|-----10-12h13--12-10-12br(13)-10-12\10\8/10----|                          
b|--11---------------------------------------------------------|
g|10-----------------------------------------------------------|
d|-------------------------------------------------------------|
a|-------------------------------------------------------------|
e|-------------------------------------------------------------|

1:29

e|------------------------------------------------------------|
b|-----------------------------------------------15~--13-13~--|
g|-14h15-14-12\10/14-12\10-12----14h15-14-12-10---------------|
d|------------------------------------------------------------|
a|------------------------------------------------------------|
e|------------------------------------------------------------|



1:41

e|-----------------------------------------------------------------|
b|-18~-16-15-------------------------------------------------------|
g|------------15-15---14-15-17-15h17p15-14-----------7-9b(10)-7~---|
d|------------------------------------------14-14------------------|
a|-----------------------------------------------------------------|
e|-----------------------------------------------------------------|


2:00             sweep!

e|-------------------10-12h13p12-10-8-10-p8~--------------------|
b|--/15--13-13~~---11-------------------------10h11-------------|
g|---------------10---------------------------------10h12-------|
d|--------------------------------------------------------------|
a|--------------------------------------------------------------|
e|--------------------------------------------------------------|

2:17

e|-------------------------------------------|
b|--------------------------------10-10~~----|
g|-7h9-10--9-7-9br(10)-7-9-7\5/7-------------|
d|-------------------------------------------|
a|-------------------------------------------|
e|-------------------------------------------|



and there it is. there is like a 15 second part where neil does some blues sh*t. after this
            
Submit corrections

comments powered by Disqus
↑ Back to top | Neil Zaza Tabs for Everything About You. Lyrics for acoustic guitar and electric guitar. Tablatures and chords are parodies/interpretations of the original songs. You may use it for private study, scholarship, research or language learning purposes only