>
 >
Angel

Angel Guitar Tabs

Neil Zaza - Angel chords, tabs, tablatures, lyrics

Guitar lessons | Add/correct | Request | Top 50 tabs Artists:  A B C D E F G H I J K L M N O P Q R S T U V W X Y Z 0-9

Angel Guitar Tabs – Neil Zaza

CD, Sheet music, Poster

Do you like Angel? Share with your friends now
Tabs
It seems like a lot of people have been looking for a tab for 
this song, so this is how i play it. Was a bit hard to figure
out the fast part so i guess thats not 100% accurate, but it's
better than nothing:)




|------------------|-10h12-10-14br------|
|-14br-12p10h12~~--|---------------15~~-|
|------------------|--------------------|
|------------------|--------------------|
|------------------|--------------------|
|------------------|--------------------|


|-------------------------------------------|
|-------------------------------------------|
|-11p9p7h9--------6/7-4/6---4/6\4\2---------|
|-------------------------------------7\5/7-|
|-------------------------------------------|
|-------------------------------------------|


|------------------|------0-0h2p0-----0----------|
|---------7-7br----|----3---------3p0---0-3b-0-0-|
|-7-7h9----------7-|-2b--------------------------|
|------------------|-----------------------------|
|------------------|-----------------------------|
|------------------|-----------------------------|


|-------------------------------------------|
|-------10brb--10rb-8-7--8------------------|
|-7--7---------------------9brp7h9----9rb-7-|
|-------------------------------------------|
|-------------------------------------------|
|-------------------------------------------|


|---------------------------15------------|
|--------------15-17--17brb----17brp15-17-|
|-14brb--14/16----------------------------|
|-----------------------------------------|
|-----------------------------------------|
|-----------------------------------------|


|------------------------------------15-----------------|
|-17-19-19b---17rbp15-17---15-17-17b----17brp15----15~~-|
|-----------------------------------------------16------|
|-------------------------------------------------------|
|-------------------------------------------------------|
|-------------------------------------------------------|


|------------------------------------------------|
|-15-----15-15h17------17-19-19b--19-17-19p17-15-|
|----14-----------14-----------------------------|
|------------------------------------------------|
|------------------------------------------------|
|------------------------------------------------|


|------------------------------------------------|
|-----3-0-5b-5brp3---3h5---7-8-8b-8--5brp3---3h5-|
|-2/4--------------4-----------------------4-----|
|------------------------------------------------|
|------------------------------------------------|
|------------------------------------------------|


|-----------------------------------------------------|
|-[5b]-----3---[5brbr]--------------------------------|
|------2/4---4----------2/4-2--2----------------------|
|--------------------------------2-2/4-4--4-[4br]-2~~-|
|-----------------------------------------------------|
|-----------------------------------------------------|


|----7-9b~rb--7-7---------------15----------------|
|-/7------------------14-15-17b----17brp15-15-17b-|
|------------------16-----------------------------|
|-------------------------------------------------|
|-------------------------------------------------|
|-------------------------------------------------|


|-17br-15-----------------12-14-15-14-12h14p12----|
|----------19p17p15-17-------------------------15-|
|-------------------------------------------------|
|-------------------------------------------------|
|-------------------------------------------------|
|-------------------------------------------------|


|-14-15-17~~-17b--17-15-14h15p14------------17-|
|--------------------------------15--17--15----|
|----------------------------------------------|
|----------------------------------------------|
|----------------------------------------------|
|----------------------------------------------|


|-17-19-21-21br--19h21p19p17-19--17---------|
|-----------------------------------19br-17-|
|-------------------------------------------|
|-------------------------------------------|
|-------------------------------------------|
|-------------------------------------------|


|-14~~-14p12p11-14p12p11----12p11----11----------|
|------------------------14-------14----14p12h14-|
|------------------------------------------------|
|------------------------------------------------|
|------------------------------------------------|
|------------------------------------------------|


|-14p12p11----------------------------------------|
|----------14p12p11-------------------------------|
|-------------------15p13p11----------------------|
|----------------------------14p13p11----11h13h14-|
|-------------------------------------14----------|
|-------------------------------------------------|


|----------------11h12h14--14--15--14--17--14--15-|
|-------11h12h14----------------------------------|
|-11h13-------------------------------------------|
|-------------------------------------------------|
|-------------------------------------------------|
|-------------------------------------------------|

|-17-19---------18-19-19h21-|
|---------------------------|
|-------18-18---------------|
|---------------------------|
|---------------------------|
|---------------------------|


|-------------------------------------------------------|
|-17-17-15-15-14-14h15p14----------14-15-17-17-15-15-14-|
|-------------------------15p14-15----------------------|
|-------------------------------------------------------|
|-------------------------------------------------------|
|-------------------------------------------------------|


|---------------------------------------------|
|-------12-14-14br----------------------------|
|----11-------------11-12---11h12p11----------|
|-12---------------------------------14p12-14-|
|---------------------------------------------|
|---------------------------------------------|


|-------------------------------------------|
|-2h3p2-------------------------------2-----|
|-------4p2-4--2----------------------------|
|-----------------[4b]-4~~---2h4p2p0----2-4-|
|-------------------------------------------|
|-------------------------------------------|


|--------------|-------------------------14-14br-|
|--------------|-----12----12-14-14br-12---------|
|--------------|-/11----11-----------------------|
|--------------|---------------------------------|
|-2-4-4b-4-2-5-|---------------------------------|
|--------------|---------------------------------|

|-12-10-10h12-12brp10----12----10~~-|-------------|
|---------------------12----12------|-[5br]p3-----|
|-----------------------------------|---------4-4-|
|-----------------------------------|-------------|
|-----------------------------------|-------------|
|-----------------------------------|-------------|


|----------------------|-------15-17-17br-15-------|
|----------------------|----15---------------15-15-|
|----------------------|-15------------------------|
|-2-4-[4br]--2h4p2p0-0-|---------------------------|
|----------------------|---------------------------|
|----------------------|---------------------------|


|--------------------------------------------------|
|----11h13-11--11h13p11-10-------10p8-7~~----------|
|-15----------------------------------------7-7~~\-|
|--------------------------------------------------|
|--------------------------------------------------|
|--------------------------------------------------|

 (3:40)
|----------------------------------------------|
|-----3-5-5h6p5p3---5---3----------------------|
|-2/4-------------4---4-------4p2--------------|
|---------------------------------4p2p0--0-2~~-|
|----------------------------------------------|
|----------------------------------------------|


|--------------------|
|--------------------|
|--------------------|
|-2brbrbrbr---0--2~~-|
|--------------------|
|--------------------|


|------------------------------------------------|
|--------10brb--10rb-8-7--8----------------------|
|-7--7-7--------------------9brp7h9----9rb-7h9-7-|
|------------------------------------------------|
|------------------------------------------------|
|------------------------------------------------|


|----------------------------------15------------|
|---------------------15-17-17brb-----17brp15-17-|
|-------14brb---14/16----------------------------|
|-12-12------------------------------------------|
|------------------------------------------------|
|------------------------------------------------|


|----------------------------------------15---------------|
|-17-19-19br--17h19p17p15-17---15-17-17b----17brp15----15-|
|---------------------------------------------------16----|
|---------------------------------------------------------|
|---------------------------------------------------------|
|---------------------------------------------------------|


|------------------------------------------------|
|-15-----15-15h17------17-19-19b--19-17-19p17-15-|
|----14-----------14-----------------------------|
|------------------------------------------------|
|------------------------------------------------|
|------------------------------------------------|


|--------------------------------------------|
|-15-----15-15h17------17-19-19b--19--17--15-|
|----14-----------14-------------------------|
|--------------------------------------------|
|--------------------------------------------|
|--------------------------------------------|





Comments


Popular Neil Zaza tabs & chords
All My Life Tabs
Everything About You Tabs
I Spy Intro Tabs
Im Alright Tabs
Im Alright Intro Tabs
Melodia Intro Tabs
My Dearest Tabs
Something Anything Intro Tabs
Tobaber Tabs
Untitled Tabs


Song lyrics



↑ Back to top | Tablatures and chords are parodies/interpretations of the original songs. You may use it for private study, scholarship, research or language learning purposes only
© 2014 AZChords.com Contact us | Privacy policy | DMCA | Add/correct tabs | Request tabs | Top 50 tabs