» » »

Yonder Stands The Sinner Bass tabs (ver.1)

Artists:  A B C D E F G H I J K L M N O P Q R S T U V W X Y Z # 

Yonder Stands The Sinner Bass tabs (ver.1)

Neil Young
Rating:
0/5 (0 votes)

Hard to play? Try these video lessons and learn fast.
                Standard Tuning 

Intro
|------------------------------------|-----------------------------------|
|------------------------------------|-----------------------------------|
|------------------------------------|-----------------------------------|
|------------------------------------|-----------------------------7-----|

|------------------------------------|-----------------------------------|
|------------------------------------|-----------------------------------|
|------------------------------------|-----------------------------------|
|-5-------------5---0-------------0--|-5-------------5---0---------7-----|

|------------------------------------|-----------------------------------|
|------------------------------------|-----------------------------------|
|------------------------------------|-----------------------------------|
|-5-------------5---0-------------0--|-5-------------5---0---------7-----|

|------------------------------------|-----------------------------------|
|------------------------------------|-----------------------------------|
|------------------------------------|-----------------------------------|
|-5-------------5---0-------------0--|-5-------------5---0---------7-----|

|------------------------------------|-----------------------------------|
|------------------------------------|-----------------------------------|
|------------------------------------|-----------------------------------|
|-5-------------5---0-------------0--|-5-------------5---0---------7-----|

'Well you heard about the great pretender..'
|------------------------------------|-----------------------------------|
|------------------------------------|-----------------------------------|
|------------------------------------|-----------------------------------|
|-5-------------5---0-------------0--|-5-------------5---0---------7-----|

|------------------------------------|-----------------------------------|
|------------------------------------|-----------------------------------|
|------------------------------------|-----------------------------------|
|-5-------------5---0-------------0--|-5-------------5---0---------7-----|

|------------------------------------|-----------------------------------|
|------------------------------------|-----------------------------------|
|------------------------------------|-----------------------------------|
|-5-------------5---0-------------0--|-5-------------5---0---------7-----|

|------------------------------------|-----------------------------------|
|------------------------------------|-----------------------------------|
|------------------------------------|-----------------------------------|
|-5-------------5---0-------------0--|-5-------------5------7------7-----|

'Yonder stands the sinner..'
|------------------------------------|-----------------------------------|
|------------------------------------|-----------------------------------|
|-5---5---------5---5-------------5--|-5-------------5---5-----------5---|
|------------------------------------|-----------------------------------|

|------------------------------------|-----------------------------------|
|-----------------------------4------|-5---------------------------------|
|-7-------------5------7-------------|-----------------------------------|
|------------------------------------|-----------------------------7-----|

|------------------------------------|-----------------------------------|
|------------------------------------|-----------------------------------|
|------------------------------------|-----------------------------------|
|-5-------------5---0---0---------0--|-5-------------5---0---------7-----|

|------------------------------------|-----------------------------------|
|------------------------------------|-----------------------------------|
|------------------------------------|-----------------------------------|
|-5-------------5---0-------------0--|-5-------------5---0---------7-----|

|------------------------------------|-----------------------------------|
|------------------------------------|-----------------------------------|
|------------------------------------|-----------------------------------|
|-5-------------5---0-------------0--|-5-------------5---0---------7-----|

|------------------------------------|-----------------------------------|
|------------------------------------|-----------------------------------|
|------------------------------------|-----------------------------------|
|-5-------------5---0-------------0--|-5-------------5---0---------7-----|

'I saw his face in the attic window..'
|------------------------------------|-----------------------------------|
|------------------------------------|-----------------------------------|
|------------------------------------|-----------------------------------|
|-5-------------5---0-------------0--|-5-------------5---0---------7-----|

|------------------------------------|-----------------------------------|
|------------------------------------|-----------------------------------|
|------------------------------------|-----------------------------------|
|-5-------------5---0-------------0--|-5-------------5---0---------7-----|

|------------------------------------|-----------------------------------|
|------------------------------------|-----------------------------------|
|------------------------------------|-----------------------------------|
|-5-------------5---0-------------0--|-5-------------5---0---------7-----|

|------------------------------------|-----------------------------------|
|------------------------------------|-----------------------------------|
|------------------------------------|---------------------------------4-|
|-5-------------5---0-------------0--|-5-------------5------7------7-----|

'Yonder stands the sinner..'
|------------------------------------|-----------------------------------|
|------------------------------------|-----------------------------------|
|-5---5---------5---5-------------5--|-5-------------5---5-----------5---|
|------------------------------------|-----------------------------------|

|------------------------------------|-----------------------------------|
|-----------------------------4------|-5---------------------------------|
|-7-------------5------7-------------|-----------------------------------|
|------------------------------------|-----------------------------7-----|

'Well I was about as scared as I could be..'
|------------------------------------|-----------------------------------|
|------------------------------------|-----------------------------------|
|------------------------------------|-----------------------------------|
|-5-------------5---0-------------0--|-5-------------5---0---------7-----|

|------------------------------------|-----------------------------------|
|------------------------------------|-----------------------------------|
|------------------------------------|-----------------------------------|
|-5-------------5---0-------------0--|-5-------------5---0---------7-----|

|------------------------------------|-----------------------------------|
|------------------------------------|-----------------------------------|
|------------------------------------|-----------------------------------|
|-5-------------5---0-------------0--|-5-------------5---0---------7-----|

|------------------------------------|-----------------------------------|
|------------------------------------|-----------------------------------|
|------------------------------------|----------------------------4------|
|-5-------------5---0-------------0--|-5---5---------5------7------------|

'Yonder stands the sinner..'
|------------------------------------|-----------------------------------|
|------------------------------------|-----------------------------------|
|-5---5---------5---5---5------------|-5------5--------5---5---------5---|
|---------------------------------5--|-----5-----------------------------|

|------------------------------------|-----------------------------------|
|-----------------------------4------|-5---------------------------------|
|-7-------------5------7-------------|-----------------------------------|
|------------------------------------|-----------------------------7-----|

|------------------------------------|-----------------------------------|
|------------------------------------|-----------------------------------|
|------------------------------------|-----------------------------------|
|-5-------------5---0---0---------0--|-5------------5---0---0------7-----|

|------------------------------------|-----------------------------------|
|------------------------------------|-----------------------------------|
|------------------------------------|-----------------------------------|
|-5-------------5---0-------------0--|-5------------5---0---0------7-----|

|------------------------------------|-----------------------------------|
|------------------------------------|-----------------------------------|
|------------------------------------|-----------------------------------|
|-5-------------5---0---0---------0--|-5---5--------5---0---0------7-----|

|------------------------------------|-----------------------------------|
|------------------------------------|-----------------------------------|
|------------------------------------|-----------------------------------|
|-5-------------5---0-------------0--|-5------------5---0---0------7-----|

|------------------------------------|-----------------------------------|
|------------------------------------|-----------------------------------|
|------------------------------------|-----------------------------------|
|-5-------------5---0-------------0--|-5------------5---0----------7-----|

|------------------------------------|-----------------------------------|
|------------------------------------|-----------------------------------|
|------------------------------------|----------------------------4------|
|-5-------------5----0------------0--|-5---5---------5------7------------|

'Yes you heard about the great pretender..'
|------------------------------------|-----------------------------------|
|------------------------------------|-----------------------------------|
|-5---5---------5---5---5---------5--|--------------------------------4--|
|------------------------------------|-7---7-------7---7---7-----7-------|

|------------------------------------|-----------------------------------|
|------------------------------------|-----------------------------------|
|-5---5---------5---5---5---------5--|------9----8----7-------------7----|
|------------------------------------|-7---------------------------------|

|------------------------------------|-----------------------------------|
|------------------------------------|-----------------------------------|
|-5-------------5---5---5---------5--|-----------------------------------|
|------------------------------------|-7---7-------7---7---7------7---5--|

|------------------------------------|-----------------------------------|
|------------------------------------|----------------------------7------|
|-5---5---------5---5---5---------5--|-----------5----7------------------|
|------------------------------------|-5----7----------------------------|

|------------------------------------|-----------------------------------|
|------------------------------------|-----------------------------------|
|------------------------------------|-5---------------------------------|
|------------------------------------|-----------------------------------|
            
Hard to play? Try these video lessons and learn fast. | Correct




comments powered by Disqus
↑ Back to top | Tablatures and chords are parodies/interpretations of the original songs. You may use it for private study, scholarship, research or language learning purposes only