» » »

Neil Young, Walk On Bass tabs (ver.1)

Artists:  A B C D E F G H I J K L M N O P Q R S T U V W X Y Z # 

Walk On Bass tabs (ver.1)

Neil Young Tabs
 Rating:
4/5 (4 votes)
Walk On lessons Tabs too difficult? Try these video lessons and learn fast
1
                Standard Tuning

Intro
|-------------------------------|-------------------------------|
|----------------------5----7---|----------------------5----7---|
|-----------5-------------------|-----------5-------------------|
|--5----7-----------------------|--5----7-----------------------|

|-------------------------------|-------------------------------|
|----------------------5----7---|----------------------5----7---|
|-----------5-------------------|-----------5-------------------|
|--5----7-----------------------|--5----7-----------------------|

Verse
|-------------------------------|-------------------------------|
|----------------------5----7---|----------------------5----7---|
|-----------5-------------------|-----------5-------------------|
|--5----7-----------------------|--5----7-----------------------|

|-------------------------------|-------------------------------|
|----------------------5----7---|----------------------5----7---|
|-----------5-------------------|-----------5-------------------|
|--5----7-----------------------|--5----7-----------------------|

|-------------------------------|-------------------------------|
|----------------------5----7---|----------------------5----7---|
|-----------5-------------------|-----------5-------------------|
|--5----7-----------------------|--5----7-----------------------|

|-------------------------------|-------------------------------|
|----------------------5----7---|----------------------5----7---|
|-----------5-------------------|-----------5-------------------|
|--5----7-----------------------|--5----7-----------------------|

Chorus
|-------------------------------|-------------------------------|
|-------------------------------|-------------------------------|
|-0--4-----------4--------------|-------------------------------|
|-------------------------------|-0--2-----------2--------------|

|-------------------------------|-------------------------------|
|-------------------------------|-------------------------------|
|-0--4-----------4--------------|-------------------------------|
|-------------------------------|-0--2-----------2--------------|

|-------------------------------|-------------------------------|
|-------------------------------|-------------------------------|
|-0--4-----------4--------------|-------------------------------|
|-------------------------------|-0--2-----------2--------------|

|-------------------------------|-------------------------------|
|-------------------------------|----------------------5----7---|
|--------------------------2/---|--5------------/5--------------|
|--0---------------2---4--------|-------------------------------|

Walk on..
|-------------------------------|-------------------------------|
|----------------------5----7---|----------------------5----7---|
|-----------5-------------------|-----------5-------------------|
|--5----7-----------------------|--5----7-----------------------|

Walk on..
|-------------------------------|-------------------------------|
|----------------------5----7---|----------------------5----7---|
|-----------5-------------------|-----------5-------------------|
|--5----7-----------------------|--5----7-----------------------|


Solo
|-------------------------------|-------------------------------|
|----------------------5----7---|----------------------5----7---|
|-----------5----/7-------------|-----------5----/7-------------|
|--5----7-----------------------|--5----7-----------------------|

|-------------------------------|-------------------------------|
|----------------------5----7---|----------------------5----7---|
|-----------5----/7-------------|-----------5----/7-------------|
|--5----7-----------------------|--5----7-----------------------|

Verse
|-------------------------------|-------------------------------|
|----------------------5----7---|----------------------5----7---|
|-----------5-------------------|-----------5-------------------|
|--5----7-----------------------|--5----7-----------------------|

|-------------------------------|-------------------------------|
|----------------------5----7---|----------------------5----7---|
|-----------5-------------------|-----------5-------------------|
|--5----7-----------------------|--5----7-----------------------|

|-------------------------------|-------------------------------|
|----------------------5----7---|----------------------5----7---|
|-----------5-------------------|-----------5-------------------|
|--5----7-----------------------|--5----7-----------------------|

|-------------------------------|-------------------------------|
|----------------------5----7---|----------------------5----7---|
|-----------5-------------------|-----------5-------------------|
|--5----7-----------------------|--5----7-----------------------|

Chorus
|-------------------------------|-------------------------------|
|-------------------------------|-------------------------------|
|-0--4-----------4--------------|-------------------------------|
|-------------------------------|-0--2-----------2--------------|

|-------------------------------|-------------------------------|
|-------------------------------|-------------------------------|
|-0--4-----------4--------------|-------------------------------|
|-------------------------------|-0--2-----------2--------------|

|-------------------------------|-------------------------------|
|-------------------------------|-------------------------------|
|-0--4-----------4--------------|-------------------------------|
|-------------------------------|-0--2-----------2--------------|

|-------------------------------|-------------------------------|
|-------------------------------|----------------------5----7---|
|--------------------------2/---|--5------------/5--------------|
|--0---------------2---4--------|-------------------------------|


Walk on..
|-------------------------------|-------------------------------|
|----------------------5----7---|----------------------5----7---|
|-----------5-------------------|-----------5-------------------|
|--5----7-----------------------|--5----7-----------------------|

Walk on..
|-------------------------------|-------------------------------|
|----------------------5----7---|----------------------5----7---|
|-----------5-------------------|-----------5-------------------|
|--5----7-----------------------|--5----7-----------------------|


|-------------------------------|-------------------------------|
|-------------------------------|-------------------------------|
|-------------------------------|-------------------------------|
|-------------------------------|-------------------------------|

|-------------------------------|-------------------------------|
|-------------------------------|-------------------------------|
|---------------------/5--------|-------------------------------|
|--5-------5------5--------5----|--5-------5-------5------5-----|

|-------------------------------|-------------------------------|
|----------------------5----7---|----------------------5----7---|
|-----------5----/7-------------|-----------5----/7-------------|
|--5---/7-----------------------|--5---/7-----------------------|

|-------------------------------|-------------------------------|
|----------------------5----7---|----------------------5----7---|
|-----------5----/7-------------|-----------5----/7-------------|
|--5---/7-----------------------|--5---/7-----------------------|
            
Submit corrections

comments powered by Disqus
↑ Back to top | Neil Young Bass for Walk On. Lyrics for acoustic guitar and electric guitar. 1 Tablatures and chords are parodies/interpretations of the original songs. You may use it for private study, scholarship, research or language learning purposes only