» » »

Neil Young, Tonights The Night Bass tabs (ver.2)

Artists:  A B C D E F G H I J K L M N O P Q R S T U V W X Y Z # 

Tonights The Night Bass tabs (ver.2)

Neil Young Tabs
 Rating:
4/5 (4 votes)
Tonights The Night lessons Tabs too difficult? Try these video lessons and learn fast
                Neil Young
Tonight's The Night
Tuning: E, A, D, G


Intro(0:11)

G|------7------|-----|--------------|
D|7-10-----0~--|-----|10-7-5-3------|
A|-------------|-----|----------3-5~|  X4
E|-------------|-----|--------------|

Verse A (0:46)

G|---------------------------------------------------------------------|
D|---------------------------------------------------------------------|
A|3h5-----3h5-----5-----------3-5------5~-----5~-----5-----------3-5~--|
E|-------------------2--3--5----------------------------2--3--5--------|

G|------------------------------------------------------|
D|------------------------------------------------------|
A|----3-3h5-----5----------2-5-3~-----5-----------3-5~--|
E|-----------------2--3--5---------------2--3--5--------|

Chorus (1:24)

G|------7------|-----|--------------|
D|7-10-----0~--|-----|10-7-5-3------|
A|-------------|-----|----------3-5~|  X2
E|-------------|-----|--------------|

Verse B (1:39)

G|--------|
D|----3h4-|
A|5-5-----| X20
E|--------|

Verse B (2:01)

G|---------------------------------------------------------------------|
D|---------------------------------------------------------------------|
A|5-555555-5-----------3-5-555--3h5-555--3h5-555-----5-----------3-5~--|
E|------------22-33-55----------------------------------22-33-55-------|

Intro/Chorus (2:18)

G|--------------------------|------7-------------------------|
D|---0~-----10-7-5-3--------|7-10-----0~-----10-7-5-3--------|
A|--------------------3-5~--|--------------------------3-5~--|
E|--------------------------|--------------------------------|


This is pretty much the whole song, You can probably figure out the rest of it with the 
I've givin' you.
            
Submit corrections

comments powered by Disqus
↑ Back to top | Neil Young Bass for Tonights The Night. Lyrics for acoustic guitar and electric guitar. Tablatures and chords are parodies/interpretations of the original songs. You may use it for private study, scholarship, research or language learning purposes only