» » »

Tired Eyes Bass tabs (ver.1)

Artists:  A B C D E F G H I J K L M N O P Q R S T U V W X Y Z # 

Tired Eyes Bass tabs (ver.1)

Neil Young
Rating:
0/5 (0 votes)

Hard to play? Try these video lessons and learn fast.
                Standard Tuning

Intro/Verse                                      
|----------------------------------|---------------------------------|
|----------------------------------|---------------------------------|
|----------------------------------|-3-------------------------------|
|----------------------------------|---------------------------------|

|----------------------------------|---------------------------------|
|----------------------------------|---------------------------------|
|-5--------------------------------|-3-------------------------------|
|----------------------------------|---------------------------------|

|----------------------------------|---------------------------------|
|--------------7------5------------|---------------------------------|
|-5-----------------------------2--|-3------------3------------------|
|----------------------------------|---------------------------------|

|----------------------------------|---------------------------------|
|--------------7------5------------|---------------------------------|
|-5-------------------------0---2--|-3------------3------------------|
|----------------------------------|---------------------------------|

                                     Chorus
|----------------------------------|---------------------------------|
|---------------------------4------|-5-------------------------------|
|-5-----------------7--------------|--------------------------0---2--|
|----------------------------------|---------------------------------|

|----------------------------------|---------------------------------|
|----------------------------------|---------------------------------|
|-3-----------------3-------2------|-------------------------7-------|
|----------------------------------|-5------------5------------------|

|----------------------------------|---------------------------------|
|----------------------------4-----|---------------------------------|
|-5--------5--------7--------------|-3-------3-------3-----------3---|
|----------------------------------|---------------------------------|

|----------------------------------|---------------------------------|
|----------------------------4-----|-5-------------------------------|
|-5--------5--------7--------------|--------------------------0---2--|
|----------------------------------|---------------------------------|

|----------------------------------|---------------------------------|
|----------------------------------|-----------7------------------4--|
|-3----------------3---------------|--5-----------------------7------|
|----------------------------------|---------------------------------|

Verse
|----------------------------------|---------------------------------|
|-5--------------------------------|---------------------------------|
|---------------------------0---2--|-3---------------3---------------|
|----------------------------------|---------------------------------|

|----------------------------------|---------------------------------|
|--------------7------5------------|---------------------------------|
|-5-------------------------0---2--|-3------------3------------------|
|----------------------------------|---------------------------------|

|----------------------------------|---------------------------------|
|--------------7------5------------|---------------------------------|
|-5-------------------------0---2--|-3------------3------------------|
|----------------------------------|---------------------------------|

                                     Chorus
|----------------------------------|---------------------------------|
|---------------------------4------|-5-------------------------------|
|-5-----------------7--------------|--------------------------0---2--|
|----------------------------------|---------------------------------|

|----------------------------------|---------------------------------|
|----------------------------------|---------------------------------|
|-3-----------------3-------2------|-------------------------7-------|
|----------------------------------|-5------------5------------------|

|----------------------------------|---------------------------------|
|----------------------------4-----|---------------------------------|
|-5--------5--------7--------------|-3-------3-------3-----------3---|
|----------------------------------|---------------------------------|

|----------------------------------|---------------------------------|
|----------------------------4-----|-5-------------------------------|
|-5--------5--------7--------------|--------------------------0---2--|
|----------------------------------|---------------------------------|

|----------------------------------|---------------------------------|
|----------------------------------|-----------7------------------4--|
|-3----------------3---------------|--5-----------------7------------|
|----------------------------------|---------------------------------|

Verse
|----------------------------------|---------------------------------|
|-5--------------------------------|---------------------------------|
|---------------------------0---2--|-3---------------3---------------|
|----------------------------------|---------------------------------|

|----------------------------------|---------------------------------|
|--------------7------5------------|---------------------------------|
|-5-------------------------0---2--|-3------------3------------------|
|----------------------------------|---------------------------------|

|----------------------------------|---------------------------------|
|--------------7------5------------|---------------------------------|
|-5-------------------------0---2--|-3------------3------------------|
|----------------------------------|---------------------------------|

|----------------------------------|---------------------------------|
|--------------7------5------------|---------------------------------|
|-5-------------------------0---2--|-3------------3------------------|
|----------------------------------|---------------------------------|

                                     Chorus
|----------------------------------|---------------------------------|
|---------------------------4------|-5-------------------------------|
|-5-----------------7--------------|--------------------------0---2--|
|----------------------------------|---------------------------------|

|----------------------------------|---------------------------------|
|----------------------------------|---------------------------------|
|-3-----------------3-------2------|-------------------------7-------|
|----------------------------------|-5------------5------------------|

|----------------------------------|---------------------------------|
|----------------------------4--5--|---------------------------------|
|-5--------5--------7--------------|-3-------3-------3-----------3---|
|----------------------------------|---------------------------------|

|----------------------------------|---------------------------------|
|----------------------------4-----|-5-------------------------------|
|-5--------5--------7--------------|--------------------------0---2--|
|----------------------------------|---------------------------------|

|----------------------------------|---------------------------------|
|----------------------------------|-----------7------------------4--|
|-3----------------3---------------|--5-----------------7------------|
|----------------------------------|---------------------------------|

Harmonica Solo
|----------------------------------|---------------------------------|
|-5--------------------------------|---------------------------------|
|------------------------0------2--|-3---------------3---------------|
|----------------------------------|---------------------------------|

|----------------------------------|---------------------------------|
|--------------7------5------------|---------------------------------|
|-5-------------------------0---2--|-3---------------3---------------|
|----------------------------------|---------------------------------|

|----------------------------------|---------------------------------|
|--------------7------5------------|---------------------------------|
|-5-------------------------0---2--|-3---------------3---------------|
|----------------------------------|---------------------------------|

                                                Chorus
|----------------------------------|---------------------------------|
|-----------------7---5------------|---------------------------------|
|-5-------------------------0---2--|---------------------------------|
|----------------------------------|-3-------------------------------|

|----------------------------------|---------------------------------|
|----------------------------------|---------------------------------|
|-3-----------------3-------2------|---------------------------------|
|----------------------------------|-5-----------5----------5--------|

|----------------------------------|---------------------------------|
|----------------------------4--5--|---------------------------------|
|-5--------5--------7--------------|-3-------3-------3------3----3---|
|----------------------------------|---------------------------------|

|----------------------------------|---------------------------------|
|----------------------------4-----|-5-------------------------------|
|-5--------5--------7--------------|-----------------------0------2--|
|----------------------------------|---------------------------------|

|----------------------------------|---------------------------------|
|----------------------------------|------------------------------4--|
|-3----------------3---------------|--5----------------------7-------|
|----------------------------------|---------------------------------|

|----------------------------------|---------------------------------|
|-5--------------------------------|---------------------------------|
|----------------------------------|---------------------------------|
|----------------------------------|---------------------------------|
            
Hard to play? Try these video lessons and learn fast. | Correct




comments powered by Disqus
↑ Back to top | Tablatures and chords are parodies/interpretations of the original songs. You may use it for private study, scholarship, research or language learning purposes only