» » »

Neil Young, Time Fades Away Bass tabs (ver.1)

Artists:  A B C D E F G H I J K L M N O P Q R S T U V W X Y Z # 

Time Fades Away Bass tabs (ver.1)

Neil Young Tabs
Rating:
0/5 (0 votes)
Time Fades Away lessons Tabs too difficult? Try these video lessons and learn fast
                Standard Tuning 

Intro
|------------------------------------|------------------------------------|
|------------------------------------|------------------------------------|
|------------------------------------|------------------------------------|
|-5--------0--------5--------0-------|-5--------0--------5--------0-------|

|------------------------------------|------------------------------------|
|------------------------------------|------------------------------------|
|------------------------------------|------------------------------------|
|-5--------0--------5--------0-------|-5--------0--------5----0----2---4--|

Verse
|------------------------------------|------------------------------------|
|------------------------------------|------------------------------------|
|------------------------------------|---------------------------------4--|
|-5--------0--------5--------0-------|-5--------0--------5----5----7------|

|------------------------------------|------------------------------------|
|------------------------------------|------------------------------------|
|-5-----------------5----------------|-5-----------------5-------------4--|
|----------5-----------------5-------|----------5-------------5----7------|

|------------------------------------|------------------------------------|
|------------------------------------|------------------------------------|
|-5-----------------5----------------|-5-----------------5---------4---5--|
|----------5-----------------5-------|----------5-------------------------|

                                                 Chorus
|------------------------------------|------------------------------------|
|------------------------------------|------------------------------------|
|-7-----------------7----------------|-3-----------------5--------5-------|
|----------7-----------------5-------|----------3-------------------------|

|------------------------------------|------------------------------------|
|------------------------------------|------------------------------------|
|------------------------------------|-3--------3--------5--------5-------|
|-5--------0--------5--------0-------|------------------------------------|

|------------------------------------|------------------------------------|
|------------------------------------|------------------------------------|
|------------------------------------|-3--------3--------5--------5-------|
|-5--------0--------5--------0-------|------------------------------------|

|------------------------------------|------------------------------------|
|------------------------------------|------------------------------------|
|------------------------------------|-3-----------------5--------5-------|
|-5--------0--------5--------5----7--|----------3-------------------------|

|------------------------------------|------------------------------------|
|------------------------------------|------------------------------------|
|------------------------------------|-3-----------------5--------5-------|
|-5--------0--------5--------5----7--|----------3-------------------------|

|------------------------------------|------------------------------------|
|------------------------------------|------------------------------------|
|------------------------------------|------------------------------------|
|-5--------0--------5--------0-------|-5--------0--------5--------0-------|

|------------------------------------|------------------------------------|
|------------------------------------|------------------------------------|
|------------------------------------|------------------------------------|
|-5--------0--------5--------0-------|-5--------0--------5----0----2---4--|

Verse
|------------------------------------|------------------------------------|
|------------------------------------|------------------------------------|
|------------------------------------|---------------------------------4--|
|-5--------0--------5--------0-------|-5--------0--------5----5----7------|

|------------------------------------|------------------------------------|
|------------------------------------|------------------------------------|
|-5-----------------5----------------|-5-----------------5-------------4--|
|----------5-----------------5-------|----------5-------------5----7------|

|------------------------------------|------------------------------------|
|------------------------------------|------------------------------------|
|-5-----------------5----------------|-5-----------------5---------4---5--|
|----------5-----------------5-------|----------5-------------------------|

                                      Chorus
|------------------------------------|------------------------------------|
|------------------------------------|------------------------------------|
|-7-----------------7----------------|-3-----------------5--------5-------|
|----------7-----------------7-------|----------3-------------------------|

|------------------------------------|------------------------------------|
|------------------------------------|------------------------------------|
|------------------------------------|-3--------3--------5--------5-------|
|-5--------0--------5--------0-------|------------------------------------|

|------------------------------------|------------------------------------|
|------------------------------------|------------------------------------|
|------------------------------------|-3-----------------5--------5-------|
|-5--------0--------5--------5----7--|----------3-------------------------|

|------------------------------------|------------------------------------|
|------------------------------------|------------------------------------|
|------------------------------------|-3--------3--------5--------5-------|
|-5--------0--------5--------0-------|------------------------------------|

|------------------------------------|------------------------------------|
|------------------------------------|------------------------------------|
|------------------------------------|-3--------3--------5--------5-------|
|-5--------0--------5--------0-------|------------------------------------|

|------------------------------------|------------------------------------|
|------------------------------------|------------------------------------|
|------------------------------------|------------------------------------|
|-5--------0--------5--------0-------|-5--------0--------5----0----2---4--|

|------------------------------------|------------------------------------|
|------------------------------------|------------------------------------|
|------------------------------------|------------------------------------|
|-5--------0--------5--------0-------|-5--------0--------5----4----2---0--|

Harmonica Solo
|------------------------------------|------------------------------------|
|------------------------------------|------------------------------------|
|------------------------------------|---------------------------------4--|
|-5--------0--------5--------0-------|-5--------0--------5----5----7------|

|------------------------------------|------------------------------------|
|------------------------------------|------------------------------------|
|-5-----------------5----------------|-5-----------------5-------------4--|
|----------5-----------------5-------|----------5-------------5----7------|

|------------------------------------|------------------------------------|
|------------------------------------|------------------------------------|
|-5-----------------5----------------|-5-----------------5---------4---5--|
|----------5-----------------5-------|----------5-------------7-----------|

|------------------------------------|------------------------------------|
|------------------------------------|------------------------------------|
|-7-----------------7----------------|-3--------3--------5--------5-------|
|----------7-----------------7-------|------------------------------------|

|------------------------------------|------------------------------------|
|------------------------------------|------------------------------------|
|------------------------------------|-3--------3--------5--------5-------|
|-5--------0--------5--------0-------|------------------------------------|

|------------------------------------|------------------------------------|
|------------------------------------|------------------------------------|
|------------------------------------|-3--------3--------5--------5-------|
|-5--------0--------5--------0-------|------------------------------------|

|------------------------------------|------------------------------------|
|------------------------------------|------------------------------------|
|------------------------------------|-3-----------------5--------5-------|
|-5--------0--------5--------5---7---|----------3-------------------------|

|------------------------------------|------------------------------------|
|------------------------------------|------------------------------------|
|------------------------------------|------------------------------------|
|-5--------0--------5--------0-------|-5--------0--------5--------0-------|

|------------------------------------|------------------------------------|
|------------------------------------|------------------------------------|
|------------------------------------|------------------------------------|
|-5--------0--------5--------0-------|-5--------0--------5--------0-------|

Verse
|------------------------------------|------------------------------------|
|------------------------------------|------------------------------------|
|------------------------------------|---------------------------------4--|
|-5--------0--------5--------0-------|-5--------0--------5----5----7------|

|------------------------------------|------------------------------------|
|------------------------------------|------------------------------------|
|-5-----------------5----------------|-5-----------------5-------------4--|
|----------5-----------------5-------|----------5-------------5----7------|

|------------------------------------|------------------------------------|
|------------------------------------|------------------------------------|
|-5-----------------5----------------|-5-----------------5---------4---5--|
|----------5-----------------5-------|----------5-------------------------|

                                                  Chorus
|------------------------------------|------------------------------------|
|------------------------------------|------------------------------------|
|-7-----------------7----------------|-3--------3--------5--------5-------|
|----------7-----------------5-------|------------------------------------|

|------------------------------------|------------------------------------|
|------------------------------------|------------------------------------|
|------------------------------------|-3-----------------5--------5-------|
|-5--------0--------5--------0-------|----------3-------------------------|

|------------------------------------|------------------------------------|
|------------------------------------|------------------------------------|
|------------------------------------|-3-----------------5--------5-------|
|-5--------0--------5--------0-------|----------3-------------------------|

|------------------------------------|------------------------------------|
|------------------------------------|------------------------------------|
|------------------------------------|-3--------3--------5--------5-------|
|-5--------0--------5--------0-------|------------------------------------|

|------------------------------------|------------------------------------|
|------------------------------------|------------------------------------|
|------------------------------------|-3-----------------5--------5-------|
|-5--------0--------5--------0-------|----------3-------------------------|

|------------------------------------|------------------------------------|
|------------------------------------|------------------------------------|
|------------------------------------|------------------------------------|
|-5--------0--------5--------0-------|-5--------0--------5--------0-------|

|------------------------------------|------------------------------------|
|------------------------------------|------------------------------------|
|------------------------------------|------------------------------------|
|-5--------0--------5--------0-------|-5--------0--------5--------0-------|

Verse
|------------------------------------|------------------------------------|
|------------------------------------|------------------------------------|
|------------------------------------|---------------------------------4--|
|-5--------0--------5--------0-------|-5--------0--------5----5----7-------|

|------------------------------------|------------------------------------|
|------------------------------------|------------------------------------|
|-5-----------------5----------------|-5-----------------5-------------4--|
|----------5-----------------5-------|----------5-------------5----7------|

|------------------------------------|------------------------------------|
|------------------------------------|------------------------------------|
|-5-----------------5----------------|-5-----------------5---------4---5--|
|----------5-----------------5-------|----------5-------------------------|

                                                  Chorus
|------------------------------------|------------------------------------|
|------------------------------------|------------------------------------|
|-7-----------------7----------------|-3-----------------5--------5-------|
|----------7-----------------5-------|----------3-------------------------|

|------------------------------------|------------------------------------|
|------------------------------------|------------------------------------|
|------------------------------------|-3--------3--------5--------5-------|
|-5--------0--------5--------0-------|------------------------------------|

|------------------------------------|------------------------------------|
|------------------------------------|------------------------------------|
|------------------------------------|-3--------3--------5--------5-------|
|-5--------0--------5--------0-------|------------------------------------|

|------------------------------------|------------------------------------|
|------------------------------------|------------------------------------|
|---------------------------7----5---|-3-----------------5--------5-------|
|-5--------0--------5----------------|----------3-------------------------|

|------------------------------------|------------------------------------|
|------------------------------------|------------------------------------|
|---------------------------7----5---|-3-----------------5--------5-------|
|-5--------0--------5----------------|----------3-------------------------|

|------------------------------------|------------------------------------|
|------------------------------------|------------------------------------|
|------------------------------------|-3--------3--------5----------------|
|-5--------0--------5--------0-------|-----------------------------2---4--|

|------------------------------------|------------------------------------|
|------------------------------------|------------------------------------|
|------------------------------------|-3--------3--------5----------------|
|-5--------0--------5--------0-------|-----------------------------2---4--|

|------------------------------------|------------------------------------|
|------------------------------------|------------------------------------|
|------------------------------------|-3--------3--------5--------5-------|
|-5--------0--------5--------0-------|------------------------------------|

|------------------------------------|------------------------------------|
|------------------------------------|------------------------------------|
|---------------------------7----5---|-3-----------------5--------5-------|
|-5--------0--------5----------------|----------3-------------------------|

|------------------------------------|------------------------------------|
|------------------------------------|------------------------------------|
|------------------------------------|-3-----------------5--------5-------|
|-5--------0--------5--------0-------|----------3-------------------------|

|------------------------------------|------------------------------------|
|------------------------------------|------------------------------------|
|---------------------------7----5---|-3-----------------5--------5-------|
|-5--------0--------5----------------|----------3-------------------------|

|------------------------------------|------------------------------------|
|------------------------------------|------------------------------------|
|------------------------------------|-3-----------------5--------5-------|
|-5--------0--------5--------0-------|----------3-------------------------|

|------------------------------------|------------------------------------|
|------------------------------------|------------------------------------|
|------------------------------------|-3-----------------5--------5-------|
|-5--------0--------5---5----0-------|----------3-------------------------|

|------------------------------------|------------------------------------|
|------------------------------------|------------------------------------|
|------------------------------------|-3--------3--------5----------------|
|-5--------0--------5--------0-------|-----------------------------2---4--|

|------------------------------------|------------------------------------|
|------------------------------------|------------------------------------|
|------------------------------------|-3--------3--------5----------------|
|-5--------0--------5--------0-------|-----------------------------2---4--|

|------------------------------------|------------------------------------|
|------------------------------------|------------------------------------|
|------------------------------------|-3--------3--------5----------------|
|-5--------0--------5--------0-------|-----------------------------2---4--|

|------------------------------------|------------------------------------|
|------------------------------------|------------------------------------|
|------------------------------------|-3--------3--------5--------5-------|
|-5--------0--------5--------0-------|------------------------------------|

|------------------------------------|------------------------------------|
|------------------------------------|------------------------------------|
|------------------------------------|-3--------3--------5--------5-------|
|-5--------0--------5--------0-------|------------------------------------|

|------------------------------------|------------------------------------|
|-------------------7---5------------|------------------------------------|
|----------------------------7---5---|-3-----------------5--------5-------|
|-5--------0-------------------------|----------3-------------------------|

|------------------------------------|------------------------------------|
|------------------------------------|------------------------------------|
|------------------------------------|------------------------------------|
|-5----------------------------------|------------------------------------|
            

comments powered by Disqus
↑ Back to top | Neil Young Bass for Time Fades Away. Lyrics for acoustic guitar and electric guitar. Tablatures and chords are parodies/interpretations of the original songs. You may use it for private study, scholarship, research or language learning purposes only