» » »

On The Way Home Tabs (ver.2)

Artists:  A B C D E F G H I J K L M N O P Q R S T U V W X Y Z # 

On The Way Home Tabs (ver.2)

Neil Young
Rating:
0/5 (0 votes)

Hard to play? Try these video lessons and learn fast.
                (Live)
-------------------------------------------------------------------------------
           On the Way Home (live from Massey Hall 1971) - Neil Young
-------------------------------------------------------------------------------

This is a great song and great version.  I cleaned up some of the chords
had left the remaining chords in the old Buffalo Springfield key (A), which isn't how
played it at Massey.  Note the fingering for the Dm7. This is the basic form for the intro
and its an easy slide playing the intro using just the last three strings.  Also note 
G progression through to A. This is just a baseline crawl.  Hope this helps.  Email me
any corrections.

Tuning: Standard

Intro: 2x
e|---7-7--x-----5--5--5-5---x---3--3---x---2--|
B|---7-7--x-----7--7--7-7---x---3--3---x---3--|
G|---7-7--x-----6--6--6-6---x---4--4---x---2--|
D|--------x-----7--7--7-7---x---5--5---x------|
A|--------x-----5--5--5-5---x----------x------|
E|--------x-----5--5--5-5---x----------x------|


           D           G                     D          Dsus2 D Dsus2 D
When the dream came I held my breath with my eyes closed
    D                  G                     D          Dsus2 D Dsus2 D
I went insane, Like a smoke ring day When the wind blows
      G                  D
Now I won't be back till later on
     G  G/F# G/E  Em A   B B B
If I do come back at all
         C      G      Dm7
But you know me, and I miss you now.

Play intro again then chord progression follows throughout

In a strange game
I saw myself as you knew me
When the change came,
And you had a
Chance to see through me
Though the other side is just the same
You can tell my dream is real
Because I love you, can you see me now.

Though we rush ahead to save our time
We are only what we feel
And I love you, can you feel it now.

Chords

     D    Dsus2    G6    G/F#    G/E     Dm7
e|---2-----0--------3-----3-------2-------1--------------|
B|---3-----3--------0-----0-------0-------1--------------|
G|---2-----2--------0-----0-------0-------3--------------|
D|------------------2-----0-------0----------------------|
A|------------------2-----2-------2----------------------|
E|------------------3-----2-------0----------------------|
            
Hard to play? Try these video lessons and learn fast. | Correct




comments powered by Disqus
↑ Back to top | Tablatures and chords are parodies/interpretations of the original songs. You may use it for private study, scholarship, research or language learning purposes only