» » »

Ohio Bass tabs (ver.1)

Artists:  A B C D E F G H I J K L M N O P Q R S T U V W X Y Z # 

Ohio Bass tabs (ver.1)

Neil Young
Rating:
0/5 (0 votes)

Hard to play? Try these video lessons and learn fast.
                Neil Young - Ohio

My teacher showed me this version.

Wait for drums to kick in.

Verse
|------------------------|
|------------------------|        X8
|-------3-----------3----|
|-5---5---3---5---5---3--|

Chorus                        x4|              x3|
|-------------------------------|----------------|----------------|
|-------------------------------|----------------|----------------|
|5-5-5-55-55-5-5----------------|----------------|----------------|
|----------------3-3-3-33-33-3-3|-5-5-5-55-55-5-5|5-5-5-5-55555555|

Keep repeating these two till end.
            
Hard to play? Try these video lessons and learn fast. | Correct




comments powered by Disqus
↑ Back to top | Tablatures and chords are parodies/interpretations of the original songs. You may use it for private study, scholarship, research or language learning purposes only