» » »

Neil Young, My Heart Tabs (ver.1)

Artists:  A B C D E F G H I J K L M N O P Q R S T U V W X Y Z # 

My Heart Tabs (ver.1)

Neil Young Tabs
 Rating:
4/5 (4 votes)
My Heart lessons Tabs too difficult? Try these video lessons and learn fast
                e-5--5--5--5--5--5--5--5--8---3--3--3---3--0---5----------5--5--5--5--5--5--5--5--8
b-6--6--6--6--6--6--6--6--8---3--3--3---3------6----------6--6--6--6--6--6--6--6--8
 down.......       the  sees his...          hand        and...                     

e ---0--3--3--3--3--0--5
b-------0-0---0--3-----6
                    hand

e---10--12-----------10--12--12--10------------10--12---------------10--12---------
b-----------10--12--------------------10--12-------------10--12--------------10--12
 somewhere...        I  got  ta get  somewhere Its not  too late   Its not  too late

e---10--12--12--10------------
b------------------------10—12
  I ve got to get       somewhere

e----8--5--5--5--0--3--3--3--5--------8--5--5--5--0--3--3-3--5
b----8--6--6--6-----0--0--3--6--------8--6--6--6-----0--0-0--6
    This...              somehow     this..                 how

"My Heart"

Down in the valley
the sheperd sees
His flock is close at hand
And in the night sky
a star is falling down

Somewhere, somehwere,
I gotta get somewhere
It's not too late,
it's not too late
I've got to get somewhere 

This time I will
take the lead somehow
This time you won't
have to show me how

When dreams come
crashing down like trees
I don't know what love can do
When life is
hanging in the breeze
I don't know what love can do

My heart, my heart
I've got to keep my heart
It's not too late,
it's not too late
I've got to keep my heart

My love, I will give
to you, it's true
Although I'm not sure
what love can do

Somehwere, somewhere
I've got to get somewhere
It's not too late,
it's not too late
I've got to get somewhere

Somewhere someone
has a dream come true
Somehow someone
has a dream come true
            
Submit corrections

comments powered by Disqus
↑ Back to top | Neil Young Tabs for My Heart. Lyrics for acoustic guitar and electric guitar. Tablatures and chords are parodies/interpretations of the original songs. You may use it for private study, scholarship, research or language learning purposes only